Log in

One click and you are in

Login with Facebook Login with Google

Why sign up and log in

Guitar Tabs Explorer
Sinach bass tabs for Way maker

Bass tabs

Tuning: Standard (E A D G)


Intro:

G|---------------------------------------------------------------------------|
D|-------------------2-------------------------------------------------------|
A|-----0---------0------2---4-------0----------2------4----------------------|
E|------------------------------0---------0-------------------0--------------|

G|-------------------------------------------------------------------------------|
D|-------------------------------------------------------------------------------|
A|-----2-------4-----------------------------------------------------------------|
E|----------------------0--------------------------------------------------------|


Chorus:

G|---------------------------------------------------------------------------|
D|-------------------2-----2-------------------------------------------------|
A|---0------0--0------------------------2-------4---4------2----------0------|
E|--------------------------------2------------------------------0-----------|

G|--------------------------------------------------------------------------------|
D|--------------------------------------------------------------------------------|
A|--------------2-----4-------0---------------------------------------------------|
E|---0----0--------------0--------------------------------------------------------|


Verse 3:

G|---------------------------------------------------------------------------|
D|-----------------2----2----------------------------------------------------|
A|----0---0--0-----------------------2-----4-----4-------0---------2---4-----|
E|------------------------------2--------------------0--------0--0--------0--|

Verse 4:

G|---------------------------------------------------------------------------|
D|-------------2---2---------------------------------------------------------|
A|---0---0--0----------------2----4-----4-------0----------------------------|
E|----------------------2------------------0---------------------------------|


Chorus:

G|---------------------------------------------------------------------------|
D|----------------------------------------6----4-----------------------------|
A|---0--0-----0-----4-4-7--------2----------------2------2------2--------2---|
E|---------0-----x---------0--0-----0--x---------------------2-------4-------|

G|------------------------------------------------------------------------------------|
D|------------------1----2---------------------------------------------------------4--|
A|---4--x--4-----4-----------2---0-----0--------0-----4--4---7---------2-----2--6-----|
E|------------4-----------------------------0------x-------------0--0-----0-----------|

G|------------------------------------------------------------------------------------|
D|------------------------------------------------------------------------------------|
A|--2---2--------2------x--------2------4---------------------------------------------|
E|-----------2--------------4---------------------------------------------------------|


Bridge:

G|---------------------------------------------------------------------------|
D|---------------2-----------------------------------------------------------|
A|--0------0----------2-------4----------0-----------2---------4-------------|
E|----------------------------------0----------0--------------------0--------|


Chorus:

G|---------------------------------------------------------------------------|
D|----------------------------------------6----4-----------------------------|
A|---0--0-----0-----4-4-7--------2----------------2------2------2--------2---|
E|---------0-----x---------0--0-----0--x---------------------2-------4-------|

G|------------------------------------------------------------------------------------|
D|------------------1----2---------------------------------------------------------4--|
A|---4--x--4-----4-----------2---0-----0--------0-----4--4---7---------2-----2--6-----|
E|------------4-----------------------------0------x-------------0--0-----0-----------|

G|------------------------------------------------------------------------------------|
D|------------------------------------------------------------------------------------|
A|--2---2--------2------x--------2------4---------------------------------------------|
E|-----------2--------------4---------------------------------------------------------|


Outro:

G|---------------------------------------------------------------------------|
D|----------------2----------------------------------------------------------|
A|----0------0---------2-------4------------0------------2---------4---------|
E|------------------------------------0----------0---------------------------|


************************************

| x Dead note

************************************

Almost there ...

Sign in to get your own page with links to favourite songs and more. You are just one click away...

Login with Facebook Login with Google