Log in

One click and you are in

Login with Facebook Login with Google

Why sign up and log in

Guitar Tabs Explorer
Charlie Simpson tabs for Life is life

Guitar tabs

||====================================================||
||            Life is Life - Charlie Simspon          ||
||====================================================||

I saw that there was no tab anywhere on the internet for this cover of Noah and the
Whales - Life is Life and only really poor tabs for thier version.
I love this guy and all his work, this cover is absaloutly stunning so i
figured this out yesterday and have played along with the song and its 100% correct! :)
Tuning - Half a step down + top 2 strings a further full step down.
A chord diagramC#5C#5
G#4
F#4
C#4
G#3
D#3


Intro:

c#5|--0-------------0------------0-----------0------------|
g#4|----------7------------7-----------7----------7-------|
f#4|------0-------------0-----------0-----------0---------|
c#4|------------------------------------------------------| (x4)
G#3|-----------------------------------------9------9-----|
D#3|--8----------8------------8-----------8---------------|


Verse:

c#5|--0-------------0------------0--------------0-----------|
g#4|----------7------------7-----------7--------------7-----|
f#4|------0-------------0-----------0--------------0--------|
c#4|--------------------------------------------------------|
G#3|-----------------------------7-----------7------------7-|
D#3|--8----------8------------8-----------------------------|

Slide to..

c#5|--0--------------0-------------0-------------0-----------|
g#4|--------9-------------9------------9-------------9-------|
f#4|------0-------------0------------0-------------0---------| (x4)
c#4|---------------------------------------------------------|
G#3|---------------------------------------------------------|
D#3|--10----------10------------10-----------10-----------10-|

Pre Chorus:

c#5|--0-------------0------------0-------------0----------0-----------0---|
g#4|--------7-------------7-----------7-------------7-----------7---------|
f#4|------0-------------0-----0-----0-------------0----0------0-----------|
c#4|----------------------------------------------------------------------|
G#3|----------------------------------------------------------------------|
D#3|--8----------8---------------0---------0--------------7--------7------|

|------------0------------0-------------0----------0-------------0-------|
|-----7------------7-----------7-------------7-----------7-------------7-|
|--0------0------0-----------0-------0-----0-----------0------0------0---|
|------------------------------------------------------------------------|
|------------------------------------------------------------------------|
|------------8---------8----------------8--------8---------------0-------|

|-----0----------0-----------0--------------0---|
|----------7-----------7----------7---------x---|
|--------0----0------0----------0-----------0---| (Let Ring)
|-------------------------------------------2---|
|-------------------------------------------3---|
|-0--------------7--------7------------7----3---|


Chorus:

A chord diagramC#5C#5|--0---0-----0--0--0--0--0-----0--0----0--0--0--0--0---|
G#4|--x---x-----x--x--x--x--x-----0--0----0--0--0--0--0---|
F#4|--0---0-----0--0--0--0--0-----0--0----0--0--0--0--0---|
C#4|--2---2-----0--0--0--0--0-----4--4----2--2--2--2--2---|
G#3|--3---3-----2--2--2--2--2-----5--5----2--2--2--2--2---|
D#3|--3---3-----3--3--3--3--3-----5--5----0--0--0--0--0---|

A chord diagramC#5C#5|--0---0-----0--0--0--0--0-----0--0--0--0--0--0--0---|
G#4|--x---x-----x--x--x--x--x-----0--0--0--0--0--0--0---|
F#4|--0---0-----0--0--0--0--0-----0--0--0--0--0--0--0---| (X2)
C#4|--2---2-----0--0--0--0--0-----4--4--4--4--4--4--4---|
G#3|--3---3-----2--2--2--2--2-----5--5--5--5--5--5--5---|
D#3|--3---3-----3--3--3--3--3-----5--5--5--5--5--5--5---|

Back to Intro.


Verse


Pre Chorus


Chorus


Bridge:

c#5|--0-------------0------------0-------------0----------0-----------0-----|
g#4|--------7-------------7-----------7-------------7-----------10----------|
f#4|------0-------------0-----0-----0-------------0----0------0-------------|
c#4|------------------------------------------------------------------------|
G#3|------------------------------------------------------------------------|
D#3|--7----------7---------------8---------8--------------0--------0--------|

|------------0------------0-------------0----------0-------------0---------|
|-----10------------7-----------7-------------7-----------7-------------7--|
|--0------0------0-----------0-------0-----0-----------0------0------0-----|
|--------------------------------------------------------------------------|
|--------------------------------------------------------------------------|
|------------8---------8----------------7--------7---------------8---------|

|-----0-----------0--------------0----------0--0--0--0--0--0--0--0--0--0-|
|----------7-----------10----------10-------x--x--x--x--x--x--x--x--x--x-|
|--------0----0------0----------0-----------0--0--0--0--0--0--0--0--0--0-|
|-------------------------------------------2--2--2--2--2--2--2--2--2--2-|
|-------------------------------------------3--3--3--3--3--3--3--3--3--3-|
|-8--------------0--------0------------0----3--3--3--3--3--3--3--3--3--3-|


Chorus X2


Intro + A chord diagramG+G Chord to finish.
ⓘ Guitar tab for 'Life Is Life' by Charlie Simpson, a male acoustic artist from Woolbridge, United Kingdom. Charlie Simpson was born in 1985.

Almost there ...

Sign in to get your own page with links to favourite songs and more. You are just one click away...

Login with Facebook Login with Google