Log in

One click and you are in

Login with Facebook Login with Google

Why sign up and log in

Guitar Tabs Explorer
Ashlee Simpson bass tabs for Boyfriend

Bass tabs

I think this is right :)

Bass starts at verse
G|-------------------------------------|
D|-------------------------------------|
A|-4-4-4-4-----------2-2-2-2--0-0-0-0--| x3
E|----------0-0-0-0--------------------|

G|----------------------------|
D|----------------------------|
A|-4-4-4-4-----------2-2-2-2--|
E|----------0-0-0-0-----------|
Chorus
G|--------------------------------------|
D|----------22222222--------------------|
A|-44444444----------22222222-00000000--|
E|--------------------------------------|

G|-------------------------------------|
D|----------22222222-------------------|
A|-44444444----------22222222-00000-0--|
E|-------------------------------------|

After Chorus
G|---------------------|
D|---------------------|
A|-4--4--2--2-2--------|
E|---------------0--0--|

Repeat Verse


Chorus 2
G|--------------------------------------|
D|----------22222222--------------------|
A|-44444444----------22222222-00000000--| x3
E|--------------------------------------|

G|-------------------------------------|
D|----------22222222-------------------|
A|-44444444----------22222222-00000-0--|
E|-------------------------------------|

After Chorus
G|--------------------------------------|
D|--------------------------------------|
A|-4-4-4-4--2-2-2-2---------------------| x2
E|-------------------0-0-0-0--2-2-2--4--|

G|------------------------|
D|------------------------|
A|-4-4-4-4--2-2-2-2-------|
E|-------------------0-0--|


Chorus 3
G|--------------------------------------|
D|----------22222222--------------------|
A|-44444444----------22222222-00000000--| x5
E|--------------------------------------|


G|-------------------------------------|
D|----------22222222-------------------|
A|-44444444----------22222222-00000-0--|

Almost there ...

Sign in to get your own page with links to favourite songs and more. You are just one click away...

Login with Facebook Login with Google