Log in

One click and you are in

Login with Facebook Login with Google

Why sign up and log in

Guitar Tabs Explorer
Ashlee Simpson tabs for Better off

Guitar tabs

A chord diagramBB -------------3----3h----3--3----3---3---3---------------3--3h----3--3----3---3---3-|
A chord diagramG+G -------------0----0h----0--0----0---0---0---------------0--0h----0--0----0---0---0-|
A chord diagramD MajorD -------------0----0h----0--0----0---0---0---------------2--2h----2--2----2---2---2-|
A chord diagramA augmentedA -------------2----2h----2--2----2---2---2-----3---3-----3--3h----3--3----3---3---3-|
A chord diagramE MajorE ----3--3-----3----3h----3--3----3---3---3------------------------------------------|

E----------------3--3h----3---3----3---3---3--------------------3--3h-----3--3----3---3----3--|
B----------------3--3h----3---3----3---3---3--------------------3--3h-----3--3----3---3----3--|
G----------------0--0h----0---0----0---0---0--------------------0--0h-----0--0----0---0----0--|
D----------------2--2h----2---2----2---2---2--------------------2--2h-----2--2----2---2----2--|
A------2---2-----2--2h----2---2----2---2---2---------3---3------3--3h-----3--3----3---3----3--|
E---------------------------------------------------------------------------------------------|
A chord diagramE MajorE -------------3----3h----3--3----3---3---3---------------3--3h----3--3----3---3---3----------|
A chord diagramBB -------------3----3h----3--3----3---3---3---------------3--3h----3--3----3---3---3----------|
A chord diagramG+G -------------0----0h----0--0----0---0---0---------------0--0h----0--0----0---0---0----------|
A chord diagramD MajorD -------------0----0h----0--0----0---0---0---------------2--2h----2--2----2---2---2----------|
A chord diagramA augmentedA -------------2----2h----2--2----2---2---2-----3---3-----3--3h----3--3----3---3---3----------|
A chord diagramE MajorE ----3--3-----3----3h----3--3----3---3---3---------------------------------------------------|

E----------------3--3h----3---3----3---3---3--------------------3--3h-----3--3----3---3----3--|
B----------------3--3h----3---3----3---3---3--------------------3--3h-----3--3----3---3----3--|
G----------------0--0h----0---0----0---0---0--------------------0--0h-----0--0----0---0----0--|
D----------------2--2h----2---2----2---2---2--------------------2--2h-----2--2----2---2----2--|
A------2---2-----2--2h----2---2----2---2---2---------3---3------3--3h-----3--3----3---3----3--|
E---------------------------------------------------------------------------------------------|


E-----0------------0---------0------------0----|
B-----0------------1---------0------------1----|
G-----0------------0---------0------------0----|
D-----2------------2---------2------------2----|
A-----2------------3---------2------------3----|
E-----0------------0---------0------------0----|


E---3--3--3--3--3--3--3--3---------------------------------|
A chord diagramBB --5--5--5--5--5--5--5--5---------------------------------|
G---5--5--5--5--5--5--5--5---------------------------------|
D---3--3--3--3--3--3--3--3---5--5--5--5--5--5--5--5--------|
A---3--3--3--3--3--3--3--3---5--5--5--5--5--5--5--5--------|
E---3--3--3--3--3--3--3--3---3--3--3--3--3--3--3--3--------|

E--------------------------------------------------------------|
B--------------------------------------------------------------|
G--------------------------------------------------------------|
D--7--7--7--7--7--7--7--7---3--3--3--3--3--3--3--3-------------|
A--7--7--7--7--7--7--7--7---3--3--3--3--3--3--3--3-------------|
E--5--5--5--5--5--5--5--5---1--1--1--1--1--1--1--1-------------|

E---3--3--3--3--3--3--3--3---------------------------------|
A chord diagramBB --5--5--5--5--5--5--5--5---------------------------------|
G---5--5--5--5--5--5--5--5---------------------------------|
D---3--3--3--3--3--3--3--3---5--5--5--5--5--5--5--5--------|
A---3--3--3--3--3--3--3--3---5--5--5--5--5--5--5--5--------|
E---3--3--3--3--3--3--3--3---3--3--3--3--3--3--3--3--------|

E--------------------------------------------------------------|
B--------------------------------------------------------------|
G--------------------------------------------------------------|
D--7--7--7--7--7--7--7--7---3--3--3--3--3--3--3--3-------------|
A--7--7--7--7--7--7--7--7---3--3--3--3--3--3--3--3-------------|
E--5--5--5--5--5--5--5--5---1--1--1--1--1--1--1--1-------------|

A chord diagramE MajorE -------------3----3h----3--3----3---3---3---------------3--3h----3--3----3---3---3-|
A chord diagramBB -------------3----3h----3--3----3---3---3---------------3--3h----3--3----3---3---3-|
A chord diagramG+G -------------0----0h----0--0----0---0---0---------------0--0h----0--0----0---0---0-|
A chord diagramD MajorD -------------0----0h----0--0----0---0---0---------------2--2h----2--2----2---2---2-|
A chord diagramA augmentedA -------------2----2h----2--2----2---2---2-----3---3-----3--3h----3--3----3---3---3-|
A chord diagramE MajorE ----3--3-----3----3h----3--3----3---3---3------------------------------------------|

E----------------3--3h----3---3----3---3---3--------------------3--3h-----3--3----3---3----3--|
B----------------3--3h----3---3----3---3---3--------------------3--3h-----3--3----3---3----3--|
G----------------0--0h----0---0----0---0---0--------------------0--0h-----0--0----0---0----0--|
D----------------2--2h----2---2----2---2---2--------------------2--2h-----2--2----2---2----2--|
A------2---2-----2--2h----2---2----2---2---2---------3---3------3--3h-----3--3----3---3----3--|
E---------------------------------------------------------------------------------------------|

A chord diagramE MajorE -------------3----3h----3--3----3---3---3---------------3--3h----3--3----3---3---3-|
A chord diagramBB -------------3----3h----3--3----3---3---3---------------3--3h----3--3----3---3---3-|
A chord diagramG+G -------------0----0h----0--0----0---0---0---------------0--0h----0--0----0---0---0-|
A chord diagramD MajorD -------------0----0h----0--0----0---0---0---------------2--2h----2--2----2---2---2-|
A chord diagramA augmentedA -------------2----2h----2--2----2---2---2-----3---3-----3--3h----3--3----3---3---3-|
A chord diagramE MajorE ----3--3-----3----3h----3--3----3---3---3------------------------------------------|

E----------------3--3h----3---3----3---3---3--------------------3--3h-----3--3----3---3----3--|
B----------------3--3h----3---3----3---3---3--------------------3--3h-----3--3----3---3----3--|
G----------------0--0h----0---0----0---0---0--------------------0--0h-----0--0----0---0----0--|
D----------------2--2h----2---2----2---2---2--------------------2--2h-----2--2----2---2----2--|
A------2---2-----2--2h----2---2----2---2---2---------3---3------3--3h-----3--3----3---3----3--|
E---------------------------------------------------------------------------------------------|

E----0----------0--------0----------0----|
B----0----------1--------0----------1----|
G----0----------0--------0----------0----|
D----2----------2--------2----------2----|
A----2----------3--------2----------3----|
E----0----------0--------0----------0----|


E---3--3--3--3--3--3--3--3---------------------------------|
A chord diagramBB --5--5--5--5--5--5--5--5---------------------------------|
G---5--5--5--5--5--5--5--5---------------------------------|
D---3--3--3--3--3--3--3--3---5--5--5--5--5--5--5--5--------|
A---3--3--3--3--3--3--3--3---5--5--5--5--5--5--5--5--------|
E---3--3--3--3--3--3--3--3---3--3--3--3--3--3--3--3--------|

E--------------------------------------------------------------|
B--------------------------------------------------------------|
G--------------------------------------------------------------|
D--7--7--7--7--7--7--7--7---3--3--3--3--3--3--3--3-------------|
A--7--7--7--7--7--7--7--7---3--3--3--3--3--3--3--3-------------|
E--5--5--5--5--5--5--5--5---1--1--1--1--1--1--1--1-------------|

E---3--3--3--3--3--3--3--3---------------------------------|
A chord diagramBB --5--5--5--5--5--5--5--5---------------------------------|
G---5--5--5--5--5--5--5--5---------------------------------|
D---3--3--3--3--3--3--3--3---5--5--5--5--5--5--5--5--------|
A---3--3--3--3--3--3--3--3---5--5--5--5--5--5--5--5--------|
E---3--3--3--3--3--3--3--3---3--3--3--3--3--3--3--3--------|

E--------------------------------------------------------------|
B--------------------------------------------------------------|
G--------------------------------------------------------------|
D--7--7--7--7--7--7--7--7---3--3--3--3--3--3--3--3-------------|
A--7--7--7--7--7--7--7--7---3--3--3--3--3--3--3--3-------------|

Other versions of Better Off

Better offChords

Almost there ...

Sign in to get your own page with links to favourite songs and more. You are just one click away...

Login with Facebook Login with Google