Log in

One click and you are in

Login with Facebook Login with Google

Why sign up and log in

Guitar Tabs Explorer
Ashlee Simpson bass tabs for Autobiography

Bass tabs

G|-----------------------------------------------------|
D|-----------------------------------------------------|
A|-----------------------------------------------------|
E|------2---0---2-----0---2---0---2-----0---2---0---2--|
                           you think you know me

G|-------------------------------------------------------------------------------------|
D|-------------------------------------------------------------------------------------|
A|-------------------------------------------------------------------------------------|
E|-----0---2---0---2---------------------------------0---2---0---2---------------------|
           Word on the street is that you do

G|---------------------------------------------------------------------------------|
D|---------------------------------------------------------------------------------|
A|-----------------------------------------------------------------/9--------------|
E|--------------------0---2---0---2------------------------------------------------|

 you want my history         what others tell you wont be true

G|---------------------------------------------------------------------------------------|
D|---------------------------------------------------------------------------------------|
A|-----------------2-2-2-2--------------------4-4----------------------------------------|
E|------2-2-2-2----------------0-0-0-0----5-5--------------------------------------------|
     I walked a thousand miles while everyone was asleep

G|-------------------------------------------------------------------------------------|
D|-------------------------------------------------------------------------------------|
A|---------------2-2-2-2-----------*4--------------------------------------------------|
E|-----2-2-2-2------------0-0-0-0------------------------------------------------------|
     Nobody’s really seen my million subtilties

G|------------------------------------------|
D|------------------------------------------|
A|-------------4-4-4-4---2-2-2-2---5-5-7-7--|
E|----5-5-5-5-------------------------------|
  Got stains on my t-shirt and im the biggest flirt

G|---------------------------------------------|
D|---------------------------------------------|
A|----------------4-4-4-4---2-2-2-2---5-5-7-7--|
E|-------5-5-5-5-------------------------------|
 right now im solo but that will be changing eventually

G|-----------------------------------------|
D|-----------------------------------------|
A|-------------4-4-4-4---2-2-2-2--5-5-7-7--|
E|-----5-5-5-5-----------------------------|
 Got bruises on my heart and sometimes i get dark

G|-------------------------------------------------------------------------------------|
D|-------------------------------------------------------------------------------------|
A|---------------4-4-4-4---2-2-2-2-----------------------------------------------------|
E|------5-5-5-5------------------------------------------------------------------------|
 If you want my auto, want my autobiography

G|-------------------------------------------------------------------------------|
D|-------------------------------------------------------------------------------|
A|--------*5---------------------------------------------------------------------|
E|-------------------------------------------------------------------------------|
  Baby just ask me   (repeat from top)

| * Hold Note
| / slide up
| \ slide down
| h hammer-on
| p pull-off
| ~ vibrato
| + harmonic
| x Mute note

Almost there ...

Sign in to get your own page with links to favourite songs and more. You are just one click away...

Login with Facebook Login with Google