Log in

One click and you are in

Login with Facebook Login with Google

Why sign up and log in

Guitar Tabs Explorer
Simple Plan bass tabs for Take my hand

Bass tabs

Track 2 from Simple Plan - Take My Hand


Tuning - Half Step Down C

   Intro
F |--------|
C |--------|
G |--------|
C |--5\----|

F |-------------------|-------------------|------------------|-------------------|
C |-------------------|-------------------|------------------|-------------------|
G |-------------------|--3-3-3-3-3-3-3-3--|------------------|--5-5-5-5-5-5-5-5--|
C |--0-0-0-0-0-0-0-0--|-------------------|--3-3-3-3-3-3-3-3-|-------------------|

F |-------------------|-------------------|------------------|-------------------|-------|
C |-------------------|-------------------|------------------|-------------------|-------|
G |-------------------|--3-3-3-3-3-3-3-3--|------------------|--5-5-5-5-5-5-5-5--|--7~~--|
C |--0-0-0-0-0-0-0-0--|-------------------|--3-3-3-3-3-3-3-3-|-------------------|-------|

F |--------|
C |--------|
G |--------|
C |--7/15--|

                  Verse
F |-------------------|-------------------|------------------|-------------------|
C |-------------------|-------------------|------------------|-------------------|
G |-------------------|--3-3-3-3-3-3-3-3--|------------------|--5-5-5-5-5-5-5-5--|
C |--0-0-0-0-0-0-0-0--|-------------------|--3-3-3-3-3-3-3-3-|-------------------|

F |-------------------|-------------------|------------------|-------------------|
C |-------------------|-------------------|------------------|-------------------|
G |-------------------|--3-3-3-3-3-3-3-3--|------------------|--5-5-5-5-5-5-5-5--|
C |--0-0-0-0-0-0-0-0--|-------------------|--3-3-3-3-3-3-3-3-|-------------------|

           "Close your eyes don't let me let you go"
F |-------------------|-------------------|-------------------|-------------------|
C |-------------------|-------------------|-------------------|-------------------|
G |--3-3-3-3-3-3-3-3--|--5-5-5-5-5-5-5-5--|--7-7-7-7-7-7-7-7--|--7-7-7-7-7-7-7-7--|
C |-------------------|-------------------|-------------------|-------------------|

F |-------------------|-------------------|--------------------|---------------------------|
C |-------------------|-------------------|--------------------|---------------------------|
G |--3-3-3-3-3-3-3-3--|--5-5-5-5-5-5-5-5--|--2-2-2-2-2-2-2-2/--|--14-14-14-14-14-14-14-14--|
C |-------------------|-------------------|--------------------|---------------------------|

                   Chorus
F |-------------------|-------------------|------------------|-------------------|
C |-------------------|-------------------|------------------|-------------------|
G |-------------------|--3-3-3-3-3-3-3-3--|------------------|--5-5-5-5-5-5-5-5--|
C |--0-0-0-0-0-0-0-0--|-------------------|--3-3-3-3-3-3-3-3-|-------------------|

F |-------------------|-------------------|------------------|-------------------|
C |-------------------|-------------------|------------------|-------------------|
G |-------------------|--3-3-3-3-3-3-3-3--|------------------|--5-5-5-5-----5-5--|
C |--0-0-0-0-0-0-0-0--|-------------------|--3-3-3-3-3-3-3-3-|-----------5-------|

F |-------------------|--------------------|---------------------------|
C |-------------------|--------------------|---------------------------|
G |--7-7-7-7-7-7-7-7--|--3-3-3-3-3-3-3-3/--|--10-10-10-10-10-10-10-10--|
C |-------------------|--------------------|---------------------------|

F |------------------------|-------------------|-------------------|-------------------|
C |------------------------|-------------------|-------------------|-------------------|
G |--5-5-5-5-5-5-----5--|-------------------|--3-3-3-3-3-3-3-3--|--2-2-2-2-2-2-2-2--|
C |------------------------|--0-0-0-0-0-0-0-0--|-------------------|-------------------|

                  Post Chorus
F |-------------------|-------------------|------------------|-------------------|
C |-------------------|-------------------|------------------|-------------------|
G |-------------------|--3-3-3-3-3-3-3-3--|------------------|--5-5-5-5-5-5-5-5--|
C |--0-0-0-0-0-0-0-0--|-------------------|--3-3-3-3-3-3-3-3-|-------------------|

F |-------------------|-------------------|------------------|
C |-------------------|-------------------|------------------|
G |-------------------|--3-3-3-3-3-3-3-3--|------------------|
C |--0-0-0-0-0-0-0-0--|-------------------|--3-3-3-3-3-3-3-3-|

                   Verse 2
F |-------------------|-------------------|--------------------|-------------------|
C |-------------------|-------------------|--------------------|-------------------|
G |-------------------|--3-3-3-3-3-3-3-3--|--------------------|--5-5-5-5-5-5-5-6--|
C |--0-0-0-0-0-0-0-0--|-------------------|--3-3-3-3-3-3-3-3---|-------------------|

F |-------------------|-------------------|-------------------|-------------------|
C |-------------------|-------------------|-------------------|-------------------|
G |--7-7-7-7-7-7-7-7--|--3-3-3-3-3-3-3-3--|-------------------|--5-5-5-5-5-5-5-5--|
C |-------------------|-------------------|--3-3-3-3-3-3-3-3--|-------------------|

F |-------------------|-------------------|-------------------|-------------------|
C |-------------------|-------------------|-------------------|-------------------|
G |--3-3-3-3-3-3-3-3--|--5-5-5-5-5-5-5-5--|--7-7-7-7-7-7-7-7--|--7-7-7-7-7-7-7-7--|
C |-------------------|-------------------|-------------------|-------------------|

F |-------------------|-------------------|-------------------|---------------------------|
C |-------------------|-------------------|-------------------|---------------------------|
G |--3-3-3-3-3-3-3-3--|--5-5-5-5-5-5-5-5--|--2-2-2-2-2-2-2-2/-|---------------------------|
C |-------------------|-------------------|-------------------|--14-14-14-14-14-14-14-14--|

                  Chorus 2
F |-------------------|-------------------|------------------|-------------------|
C |-------------------|-------------------|------------------|-------------------|
G |-------------------|--3-3-3-3-3-3-3-3--|------------------|--5-5-5-5-5-5-5-5--|
C |--0-0-0-0-0-0-0-0--|-------------------|--3-3-3-3-3-3-3-3-|-------------------|

F |-------------------|-------------------|------------------|-------------------|
C |-------------------|-------------------|------------------|-------------------|
G |-------------------|--3-3-3-3-3-3-3-3--|------------------|--5-5-5-5-----5-5--|
C |--0-0-0-0-0-0-0-0--|-------------------|--3-3-3-3-3-3-3-3-|-----------5-------|

F |-------------------|--------------------|---------------------------|
C |-------------------|--------------------|---------------------------|
G |--7-7-7-7-7-7-7-7--|--3-3-3-3-3-3-3-3/--|--10-10-10-10-10-10-10-10--|
C |-------------------|--------------------|---------------------------|

F |------------------------|--------------------|-------------------|--------------------|
C |------------------------|--------------------|-------------------|--------------------|
G |--5-5-5-5-5-5--------5--|--------------------|--3-3-3-3-3-3-3-3--|--2-2-2-2-2-2-2-2\--|
C |-------------------------|--0-0-0-0-0-0-0-0--|-------------------|--------------------|

F |------------------------|
C |------------------------|
G |--14-14-14-14-14-14-14--|
C |------------------------|

                    Bridge
F |-------------------|-------------------|------------------|-------------------|
C |-------------------|-------------------|------------------|-------------------| X3
G |-------------------|--3-3-3-3-3-3-3-3--|------------------|-------------------|
C |--0-0-0-0-0-0-0-0--|-------------------|--3-3-3-3-3-3-3-3-|--5-5-5-5-5-5-5-5--|

F |-------------------|-------------------|------------------|-----------------|
C |-------------------|-------------------|------------------|-----------------|
G |-------------------|--3-3-3-3-3-3-3-3--|------------------|-----------------|
C |--0-0-0-0-0-0-0-0--|-------------------|--3-3-3-3-3-3-3-3-|--5-5-5-5-5-5/15-|

F |------------------|-------------------|-------------------|-------------------|
C |------------------|-------------------|-------------------|-------------------|
G |--3-3-3-3-3-3-3-3-|--5-5-5-5-5-5-5-5--|-------------------|-------------------|
C |------------------|-------------------|--0-0-0-0-0-0-0-0--|--0-0-0-0-7-0-7-0--|

F |------------------|-------------------|--------------------------|--------------------------|
C |------------------|-------------------|--------------------------|--------------------------|
G |--3-3-3-3-3-3-3-3-|--5-5-5-5-5-5-5-5--|-----------5--------5--7--|-----5--------------------|
C |------------------|-------------------|--7--7--7-----7--7--------|--7-----7--7--7--7--7--7--|

F |--------------------------------------|-----------------------------------|
C |-----------------14-----------14--16--|-----------------------------------|
G |--14--14--14----------14--14----------|--14--17--14--14--14--14--14--14\--|
C |--------------------------------------|-----------------------------------|

Rest until

              "Cause our Hearts are locked forever"
F |-----------------|----------------------------|------------------------------|
C |-----------------|----------------------------|------------------------------|
G |--5--------------|-----------------------5~~--|--3--------3----3-------------|
C |------------0~---|--0--------0----------------|---------------------------3--|

F |---------------------------|----------------------------|----------------------------|
C |---------------------------|----------------------------|----------------------------|
G |----------------------5~~--|--5--5--5--5--2--5----------|-----------------------3~~--|
C |--3--------3---------------|-----------------------0~~--|--0--------0----------------|

F |----------------------------|--------------------|------------------------|
C |----------------------------|--------------------|------------------------|
G |--3----3--------3--3--3--3--|--2-2-2-2-2-2-2-2/--|--14-14-14-14-14-14-14--|
C |----------------------------|--------------------|------------------------|

                    Outro
F |-------------------|-------------------|-------------------|-------------------|
C |-------------------|-------------------|-------------------|-------------------|
G |--7-7-7-7-7-7-7-7--|--3-3-3-3-3-3-3-3--|-------------------|--5-5-5-5-5-5-5-5--|
C |-------------------|-------------------|--3-3-3-3-3-3-3-3--|-------------------|

F |-------------------|--------------------|---------------------------|
C |-------------------|--------------------|---------------------------|
G |--7-7-7-7-7-7-7-7--|--3-3-3-3-3-3-3-3/--|--10-10-10-10-10-10-10-10--|
C |-------------------|--------------------|---------------------------|

F |-----------------------------|
C |-----------------------------|
G |--9--9--9--9--10-------------|
C |---------------------10--7\--|

F |-------------------|-------------------|------------------|-------------------|
C |-------------------|-------------------|------------------|-------------------|
G |-------------------|--3-3-3-3-3-3-3-3--|------------------|--5-5-5-5-----5-5--|
C |--0-0-0-0-0-0-0-0--|-------------------|--3-3-3-3-3-3-3-3-|-----------5-------|

F |-------------------|-------------------|---------------------|---------------------|
C |-------------------|-------------------|---------------------|-----------------4\--|
G |--7-7-7-7-7-7-7-7--|--3-3-3-3-3-3-3-3--|--2-2-2----2-2-2-----|--2-2-2------2-2-----|
C |-------------------|-------------------|---------2--------2--|----------2----------|

F |-------------------|
C |--9-9-9-9-9-9-9-9--|
G |-------------------|
C |-------------------|

F |----------|
C |----------|
G |----------|
C |--0----0--|

Almost there ...

Sign in to get your own page with links to favourite songs and more. You are just one click away...

Login with Facebook Login with Google