Log in

One click and you are in

Login with Facebook Login with Google

Why sign up and log in

Guitar Tabs Explorer
Simple Plan bass tabs for Singing in the rain

Bass tabs

[Intro]

G|------------------------------------------------|
D|------------------------------------------------|
A|----------------------------------------7-------|
E|0-0------5-5-------9-9-------7-7------7-9-------| x6

"Storm clouds are......"

G|--------------------------------------------|
D|--------------------------------------------|
A|--------------------------------------------|
E|9-9------7-7------5-5-------7-7-------------|



[Chorus]

G|-------------------------------------------------------------|
D|-------------------------------------------------------------|
A|-----------------------------------------------------7-------|
E|0--0-0----0--5--5-5------9--9-9-----9--7--7-7------7-9-------| x6

Repeat above^ till "I went to see a fortune teller...."

G|---------------------------------------------------|
D|---------------------------------------------------|
A|----------------------------------------------7----|
E|--12\-0-0------5-5-------9-9-------7-7------7-9----|

G|------------------------------------------------|
D|------------------------------------------------|
A|----------------------------------------7-------|
E|0-0------5-5-------9-9-------7-7------7-9-------| x3

Go back to "Storm clouds are....."

************************************

| \  Slide down

ⓘ Bass guitar tab for 'Singing In The Rain' by Simple Plan, an alternative rock band formed in 1999 from MontrĂ©al, QuĂ©bec. Simple Plan is known for their gritty rock/pop music.

Almost there ...

Sign in to get your own page with links to favourite songs and more. You are just one click away...

Login with Facebook Login with Google