Log in

One click and you are in

Login with Facebook Login with Google

Why sign up and log in

Guitar Tabs Explorer
Simple Plan bass tabs for Perfectly perfect

Bass tabs

  • Tuning: Standard tuning
  • Difficulty: Beginner
Chorus
G-----------------------------------------------------------------
D-----------------------------------------------------------------
A---3~----------------------------3~------------------------3~----
E---------3~----5~----1~---------------3~----5~---1---3-----------

Chorus 2 (x2)
G---------------------------------------------
D---------------------------------------------
A--3-3-3-3------------------------------------
E------------3-3-3-3----5-5-5-5----1-1-1-1----

G---------------------------------------------
D---------------------------------------------
A--3-3-3-3------------------------------------
E------------3-3-3-3----5-5-5-5----1-1-3-3----


Bridge
G------------------------------------------------------------------------------------
D------------------------------------------------------------------------------------
A----------------------3-3-3-3---10-10-10-10----8-8-8-8-8-8-8------------------------
E--1-1-1-1-1-1-1-1-----------------------------------------------5-5-5-5---3-3-3-3---

G---------------------------
D---------------------------
A---------------------3~----
E--1-1-1-1-1-1-1-1----------


Final Chorus
G---------------------------------------------
D---------------------------------------------
A--3-3-3-3------------------------------------
E------------3-3-3-3----5-5-5-5----1-1-1-1----

G---------------------------------------------
D---------------------------------------------
A--3-3-3-3------------------------------------
E------------3-3-3-3----5-5-5-5----1-1-3-3----

G---------------------------------------------
D---------------------------------------------
A--3-3-3-3------------------------------------
E------------3-3-3-3----5-5-5-5----1-1-1-1----

G----------------------------------
D----------------------------------
A--3-3-3-3-------------------------
E------------3-3-3-3----5-5-5-5----

ⓘ Bass guitar tab for 'Perfectly Perfect' by Simple Plan, an alternative rock band formed in 1999 from Montréal, Québec. Simple Plan is known for their gritty rock/pop music.

Almost there ...

Sign in to get your own page with links to favourite songs and more. You are just one click away...

Login with Facebook Login with Google