Log in

One click and you are in

Login with Facebook Login with Google

Why sign up and log in

Guitar Tabs Explorer
Simple Plan tabs for Perfect world entry

Guitar tabs

E---------5------------------
B------6-----6---------------
G---7------------------------
D----------------------------
A----------------------------
E----------------------------

E---------5------------------
B------6-----6---------------
G----------------------------
D----------------------------
A----------------------------
E----------------------------

E----------------------------
B------6---8---6\-6--8-------
G----------------------------
D----------------------------
A----------------------------
E----------------------------

ⓘ Guitar tab for 'Perfect World Entry' by Simple Plan, an alternative rock band formed in 1999 from MontrĂ©al, QuĂ©bec. Simple Plan is known for their gritty rock/pop music.

Almost there ...

Sign in to get your own page with links to favourite songs and more. You are just one click away...

Login with Facebook Login with Google