Log in

One click and you are in

Login with Facebook Login with Google

Why sign up and log in

Guitar Tabs Explorer
Simple Plan bass tabs for Perfect world

Bass tabs

-------------------------------------------------------------------------------
		  Perfect World - Simple Plan
-------------------------------------------------------------------------------

Tabbed By :Chris Der Bassist

One of the best Simple Plan songs.So enjoy


Intro:

G:----------------------------------------------------I
D:--------------5----5---353--------------------------I
A:-(13131313)33--33----6----565-----3~----------------I Play the 13 in the
E:----------------------------------------------------I brackets just for fun


Verse

G:----------------------------------------------------I
D:----------------------------------------------------I
A:-33----66------33----66/131313131313----------------I
E:----44----66------44--------------------------------I


Chorus:

G:----------------------------------------------------I
D:----------------------------------------------------I
A:-33333-----66666------33333-----66666/13131313------I
E:------44444-----66666-----44444---------------------I

G:----------------------------------------------------I
D:----------------------------------------------------I
A:-33333------66666-----------------------------------I
E:------44444------66666--44444--66666----------------I


Intro


Verse

G:---------------------------------------------------I
D:---------------------------------------------------I
A:-33----66-----33---66~-----------------------------I
E:----44----66----44----444444---666666666-----------I


Chorus


Bridge:
Need some work i will upload the bridge later.


Intro (but a little bit different)

G:----------------------------------------------------I
D:----5----5---353--------5----5---353~-/555----------I
A:-33---33---6----565--33---33---6--------------------I
E:----------------------------------------------------I


Chorus:

G:----------------------------------------------------I
D:----------------------------------------------------I
A:-33333-----66666------33333-----66666/13131313------I
E:------44444-----66666-----44444---------------------I

G:----------------------------------------------------I
D:----------------------------------------------------I
A:-33333------66666-----------------------------------I
E:------44444------66666--44444--66666--44444--666666-I

Outro

G:----------------------------------------------------I
D:----5----5---353--------5----5---353~---------------I
A:-33---33---6----565--33---33---6--------------------I
E:----------------------------------------------------I


/ = slide down
~ =let it ring
ⓘ Bass guitar tab for 'Perfect World' by Simple Plan, an alternative rock band formed in 1999 from MontrĂ©al, QuĂ©bec. Simple Plan is known for their gritty rock/pop music.

Almost there ...

Sign in to get your own page with links to favourite songs and more. You are just one click away...

Login with Facebook Login with Google