Log in

One click and you are in

Login with Facebook Login with Google

Why sign up and log in

Guitar Tabs Explorer
Simple Plan tabs for Perfect

Guitar tabs

Album: No Pads, no Helmets ... Just Balls
Transcriber: Alex Alfonso Santos Navas
(alexalfonso89@yahoo.com)

 Intro
 |----------------------------------------
 |-----6----------------6-8---------------
 |8--7------------8--7--------------------
 |8-------6--5----8--------6--5---------
 |6-------6----6--6--------6----6-------
 |--------4----------------4------------

 | ----------------
 | ----------------
 | 8-8-8-8---------
 | 6-6-8-8-6-6-6-6-
 | 6-6-6-6-6-6-6-6-
 | --------4-4-4-4-   x2

 |----------------------------------------
 |-----6----------------6-8---------------
 |8--7------------8--7--------------------
 |8-------6--5----8--------6--5---------
 |6-------6----6--6--------6----6-------
 |--------4----------------4------------ x2

 |-------------------------------
 |-------------------------------
 |10-10--10----------------------
 |-8--8---8--6-6-6--8-8-8-8-8----
 |-8--8---8--6-6-6--6-6-6-6-6----
 |-----------4-4-4--6-6-6-6-6----

 |----------------------------------
 |----------------------------------
 |10-10--10-------------------------
 |-8--8---8--6-6-6-6--6-6-6-6-------
 |-8--8---8--6-6-6-6--6-6-6-6-------
 |-----------4-4-4-4--4-4-4-4-------

 |----------------------------------
 |----------------------------------
 |----------------------------------
 |-8-----------------8------10---6--
 |-6-----------------8------10---6--
 |-6-----------------6-------8---4-- x2
...we lost it all


 | ----------------
 | ----------------
 | 8-8-8-8---------
 | 6-6-8-8-6-6-6-6-
 | 6-6-6-6-6-6-6-6-
 | --------4-4-4-4-   x2

 |----------------------------------------
 |-----6----------------6-8---------------
 |8--7------------8--7--------------------
 |8-------6--5----8--------6--5---------
 |6-------6----6--6--------6----6-------
 |--------4----------------4------------ x2

 |-------------------------------
 |-------------------------------
 |10-10--10----------------------
 |-8--8---8--6-6-6--8-8-8-8-8----
 |-8--8---8--6-6-6--6-6-6-6-6----
 |-----------4-4-4--6-6-6-6-6----

 |----------------------------------
 |----------------------------------
 |10-10--10-------------------------
 |-8--8---8--6-6-6-6--6-6-6-6-------
 |-8--8---8--6-6-6-6--6-6-6-6-------
 |-----------4-4-4-4--4-4-4-4-------

 |----------------------------------
 |----------------------------------
 |----------------------------------
 |-8-----------------8------10---6--
 |-6-----------------8------10---6--
 |-6-----------------6-------8---4--
...we lost it all

 |----------------------------------
 |----------------------------------
 |----------------------------------
 |-8-----------------8------10---8--
 |-6-----------------8------10---8--
 |-6-----------------6-------8---6--


 |--------------------------------
 |--------------------------------
 |----------------------pm-pm-pm--
 |-6-6-6--8-8-8--8-8-8---8--8--8--
 |-6-6-6--8-8-8--6-6-6---8--8--8--
 |-4-4-4--6-6-6--6-6-6---6--6--6-- x2
 Nothing...

 |--------------------------
 |--------------------------
 |--------------------------
 |-6-6-6--8-8-8--6-6-6-6-6--
 |-6-6-6--8-8-8--6-6-6-6-6--
 |-8-8-8--6-6-6--4-4-4-4-4--

 |--------------------------------------
 |-----6----------------6-8-------------
 |8--7------------8--7------------------
 |8-------6--5----8--------6--5---------
 |6-------6----6--6--------6----6-------
 |--------4----------------4------------

 |----------------------------------
 |----------------------------------
 |----------------------------------
 |-8-----------------8------10---6--
 |-6-----------------8------10---6--
 |-6-----------------6-------8---4-- x4
...we lost it all

Soy de Ecuador,... y dedico estĆ” transcripciĆ³n a mi ƱaƱa del alma...
Cualquier comentario a mi email alexalfonso89@yahoo.com
ⓘ Guitar tab for 'Perfect' by Simple Plan, an alternative rock band formed in 1999 from MontrĆ©al, QuĆ©bec. Simple Plan is known for their gritty rock/pop music.

Other versions of Perfect

Perfect worldTabs
Perfect world entryTabs
Perfectly perfectTabs
Perfectly perfect acousticTabs

Almost there ...

Sign in to get your own page with links to favourite songs and more. You are just one click away...

Login with Facebook Login with Google