Log in

One click and you are in

Login with Facebook Login with Google

Why sign up and log in

Guitar Tabs Explorer
Simple Plan tabs for One day

Guitar tabs

A chord diagramA augmentedA GREAT song from a GREAT band :D Check out some more of their shit, it's
rad.

Tune 1/2 step down.


Verse:
          Riff 1
           A chord diagramD MajorD             A chord diagramG+G
---------|---------2p0-0---------------------
---------|---------3-------------------------
---------|-----------------------------------
---------|----0-0----------------------------
---------|------------------------xx---------
--5-s-10-|------------------3--3--xx-3-------

Riff1 cont

------2p0-0------------------------
------3----------------------------
-----------------------------------
-------------------------0---------
-0-0-----------------0h2----2------
---------------3-3-----------------


Riff 2

A chord diagramA augmentedA             A chord diagramG+G
------2p0-0--------------------------------
------3-------3-3-3-3--3s5-5---------------
--------------0-0-0-0--0-------------------
-------------------------------------------
-0-0---------------------------------------
-------------------------------------------
Play Riff 1 two times then play Riff 2 once (x2)

Then
A chord diagramE minorEm A chord diagramA augmentedA A chord diagramG+G A chord diagramA augmentedA


Chorus: A chord diagramD MajorD A chord diagramG+G | A chord diagramA augmentedA A chord diagramG+G A chord diagramA augmentedA| A chord diagramD MajorD A chord diagramG+G| A chord diagramA augmentedA A chord diagramG+G A chord diagramA augmentedA| A chord diagramD MajorD A chord diagramG+G| A chord diagramA augmentedA| A chord diagramB minorBm A chord diagramA augmentedA| A chord diagramG+G A chord diagramG+G A chord diagramA augmentedA|

:D Enjoy. Simple Plan rocks!

E-mail questions, comments, congrats, complaints, death threats, love
letters, etc Aerochicka@hotmail.com

ⓘ Guitar tab for 'One Day' by Simple Plan, an alternative rock band formed in 1999 from MontrĂ©al, QuĂ©bec. Simple Plan is known for their gritty rock/pop music.

Almost there ...

Sign in to get your own page with links to favourite songs and more. You are just one click away...

Login with Facebook Login with Google