Log in

One click and you are in

Login with Facebook Login with Google

Why sign up and log in

Guitar Tabs Explorer
Simple Plan bass tabs for Meet you there

Bass tabs

Tuning: Standard (E A D G)

Key: B

Difficulty: Novice


Intro:

G|---------------------------------------------------------------------------|
D|---------------------------------------------------------------------------|
A|-2--2-2--2-2-2---2--2-2--2-2-2---------------------------------------------| X2
E|---------------------------------0--0-0--0-0-0---0--0-0--0-0-0-------------|


Verse 1:

G|---------------------------------------------------------------------------|
D|---------------------------------------------------------------------------|
A|-2--2-2--2-2-2---2--2-2--2-2-2---------------------------------------------| X4
E|---------------------------------0--0-0--0-0-0---0--0-0--0-0-0-------------|


Pre-Chorus:

G|---------------------------------------------------------------------------|
D|---------------------------------------------------------------------------|
A|---------------------------------------------------------------------------| X2
E|---4--4-4-4-4-4--2--2-2--2-2-2--0--0-0--0-0-0--0--0-0--0-0-0---------------|


Chorus:

G|---------------------------------------------------------------------------|
D|---------------------------------------------------------------------------|
A|---2--2-2--2-2-2--2--2-2--2-2-2-------2-2----------------------------------| X2
E|---------------------------------0-0-0----2-2--2-2--2-2--------------------|



Verse 2:

G|---------------------------------------------------------------------------|
D|---------------------------------------------------------------------------|
A|-2--2-2--2-2-2---2--2-2--2-2-2---------------------------------------------| X4
E|---------------------------------0--0-0--0-0-0---0--0-0--0-0-0-------------|


Pre-Chorus:

G|---------------------------------------------------------------------------|
D|---------------------------------------------------------------------------|
A|---------------------------------------------------------------------------| X2
E|---4--4-4-4-4-4--2--2-2--2-2-2--0--0-0--0-0-0--0--0-0--0-0-0---------------|


Chorus:

G|---------------------------------------------------------------------------|
D|---------------------------------------------------------------------------|
A|---2--2-2--2-2-2--2--2-2--2-2-2-------2-2----------------------------------| X4
E|---------------------------------0-0-0----2-2--2-2--2-2--------------------|


Bridge:

G|---------------------------------------------------------------------------|
D|---------------------------------------------------------------------------|
A|---------------2--2--------------------------------------------------------| X8
E|--0--0---4--4-------2--2---------------------------------------------------|


No bass from 3:00 to 3:15, then


G|---------------------------------------------------------------------------|
D|---------------------------------------------------------------------------|
A|---------------2--2--------------------------------------------------------| X1
E|--0--0---4--4-------2--2---------------------------------------------------|


Chorus:

G|---------------------------------------------------------------------------|
D|---------------------------------------------------------------------------|
A|---2--2-2--2-2-2--2--2-2--2-2-2-------2-2----------------------------------| X5
E|---------------------------------0-0-0----2-2--2-2--2-2--------------------|


G|---------------------------------------------------------------------------|
D|---------------------------------------------------------------------------|
A|---2--2-2--2-2-2--2--2-2--2-2-2-------2-2----------------2~----------------| X1
E|---------------------------------0-0-0----2-2--2-2--2-2--------------------|
ⓘ Bass guitar tab for 'Meet You There' by Simple Plan, an alternative rock band formed in 1999 from MontrĂ©al, QuĂ©bec. Simple Plan is known for their gritty rock/pop music.

Almost there ...

Sign in to get your own page with links to favourite songs and more. You are just one click away...

Login with Facebook Login with Google