Log in

One click and you are in

Login with Facebook Login with Google

Why sign up and log in

Guitar Tabs Explorer
Simple Plan bass tabs for Jet lag

Bass tabs

Track 3 from Get Your Heart On!


Tuning - Half Step Down D - D# G C F

       Intro
F |----------------------------|
C |----------------------------|
G |--3-------------------------| X2
D# |---------3-----1-----1---1--|


                 Verse X2
F |-------------------|-----------------|-------------------|------------------|
C |-------------------|-----------------|-------------------|------------------|
G |--3-3-3-3-3-3-3-3--|--3-3-3-3-3-3-3--|-------------------|------------------|
D#|-------------------|-----------------|--1-1-1-1-1-1-1-1--|--1-1-1-1-1-1-1-1-|


                  Pre Chorus
F |-------------------|-------------------|-------------------|----------------|
C |-------------------|-------------------|-------------------|----------------|
G |--0-0-0-0-0-0-0-0--|--0-0-0-0-0-0-0-0--|-------------------|----------------|
D#|-------------------|-------------------|--1-1-1-1-1-1-1-1--|--1-1-1-1-1-1-1-|

F |-------------------|-------------------|-------------------|-------|
C |-------------------|-------------------|-------------------|-------|
G |--0-0-0-0-0-0-0-0--|--0-0-0-0-0-0-0-0--|-------------------|-------|
D#|-------------------|-------------------|--3-3-3-3-3-3-3-3--|--3~~--|


                Chorus X2
F |-------------------|-------------------|-------------------|-------------------|
C |-------------------|-------------------|-------------------|-------------------|
G |--3-3-3-3-3-3-3-3--|-------------------|--0-0-0-0-0-0-0-0--|-------------------|
D#|-------------------|--1-1-1-1-1-1-1-1--|-------------------|--3-3-3-3-3-3-3-3--|


             "Heart Heart" X2
F |-------------------------------|-----------------------|
C |-------------------------------|-----------------------|
G |--3---3---3------3------3---3--|-----------------------|
D# |-------------------------------|--1---1------1------1--|

F |-------------------------------|-----------------------|
C |-------------------------------|-----------------------|
G |-------------------------------|-----------------------|
D# |--0---0---0------0------0---0--|--3---3------3------3--|

Repeat Intro
Repeat Verse
Repeat Chorus
Repeat "Heart Heart"


            Bridge
F |-----------|-----------|-----------|-----------|
C |-----------|-----------|-----------|-----------| X4
G |-----------|-----------|-----0-----|-----------|
D# |-----3-----|-----1-----|-----------|-----3-----|


         "You Say Good Morning"
F |-----------------------|-----------------------|
C |-----------------------|-----------------------|
G |--3-----3-----3-----3--|-----------------------|
D# |-----------------------|--1-----1-----1-----1--|


                    Final Chorus
F |-------------------|-------------------|-------------------|-------------------|
C |-------------------|-------------------|-------------------|-------------------|
G |--0-0-0-0-0-0-0-0--|-------------------|--3-3-3-3-3-3-3-3--|-------------------| X3
D# |-------------------|--3-3-3-3-3-3-3-3--|-------------------|--1-1-1-1-1-1-1-1--|

F |-------------------|-------------------|
C |-------------------|-------------------|
G |--0-0-0-0-0-0-0-0--|-------------------|
D# |-------------------|--3-3-3-3-3-3-3-3--|

Repeat "Heart Heart"


       End
F |----------------------------|
C |----------------------------|
G |--3-------------------------|
D# |---------3-----1-----1---1--|
ⓘ Bass guitar tab for 'Jet Lag' by Simple Plan, an alternative rock band formed in 1999 from MontrĂ©al, QuĂ©bec. Simple Plan is known for their gritty rock/pop music.

Almost there ...

Sign in to get your own page with links to favourite songs and more. You are just one click away...

Login with Facebook Login with Google