Log in

One click and you are in

Login with Facebook Login with Google

Why sign up and log in

Guitar Tabs Explorer
Simple Plan bass tabs for Id do anything

Bass tabs

Tuning: B Tuning (B E A D)

Difficulty: Intermediate


Intro:
G|---------------|----------------|---------------|----------------|---------------|
D|----3-6----5-8-|----------------|----3-6----5-8-|----------------|----3-6----5-8-|
A|-4------6------|----------------|-4------7------|----------------|-4------6------|
E|---------------|-4--4-4-4-4-4-4-|---------------|-4--4-4-4-4-3-1-|---------------|
B|---------------|----------------|---------------|----------------|---------------|
Verse 1:
G|----------|-(rest)--|-----------------|----------------|----------------|----------------|
D|----------|-(for)---|-------3-6---5-8-|----------------|----------------|----------------|
A|----------|-(16)----|-----4----7------|----------------|----------------|--------------4-|
E|-4\-------|-(beats)-|-----------------|-4--4-4-4-4-4-4-|-3--3-3-3-3-3-3-|-1--1-1-1-1-1---|
B|----------|---------|-----------------|----------------|----------------|----------------|

G|-------------|---------------|---------------|---------------|---------|
D|-3-6---5-8---|---------------|---------------|---------------|---------|
A|-----6-------|---------------|---------------|-------------4-|----6----|
E|-----------4-|-4-4-4-4-4-4-3-|-3-3-3-3-3-3-1-|-1-1-1-1-1-1---|-------6-|
B|-------------|---------------|---------------|---------------|---------|


Pre-Chorus:
G|---------------|---------------|---------------|-----------------|---------|
D|---------------|---------------|---------------|-----------------|---------|
A|---------------|-------------4-|-4-4-4-4-4-4-6-|-6-6-6-6-6-6-6-6-|-5-5-----|
E|-6-6-6-6-6-6-8-|-8-8-8-8-8-8---|---------------|-----------------|---------|
B|---------------|---------------|---------------|-----------------|---------|


Chorus:
G|----------------|-----------------|----------------|----------------|----------------|----------------|
D|----------------|-----------------|----------------|----------------|----------------|----------------|
A|----------------|-----------------|----------------|-4--4-4-4-4-4-4-|----------------|----------------|
E|-4--4-4-4-4-4-4-|-----------------|-1--1-1-1-1-1-1-|----------------|-4--4-4-4-4-4-4-|----------------|
B|----------------|-4--4-4-4-4-4-4--|----------------|----------------|----------------|-4--4-4-4-4-4-4-|

G|----------------|---------|----------------|----------------|----------------|----------------|
D|----------------|---------|----------------|----------------|----------------|----------------|
A|----------------|-4-4-----|----------------|----------------|----------------|-4--4-4-4-4-4-4-|
E|-1--1-1-1-1-1-1-|---------|-4--4-4-4-4-4-4-|----------------|-1--1-1-1-1-1-1-|----------------|
B|----------------|---------|----------------|-4--4-4-4-4-4-4-|----------------|----------------|

G|----------------|----------------|----------------|----------|
D|----------------|----------------|----------------|----------|
A|----------------|----------------|----------------|-4---4----|
E|-4--4-4-4-4-4-4-|----------------|-1--1-1-1-1-1-1-|----------|
B|----------------|-4--4-4-4-4-4-4-|----------------|----------|

Verse 2:
G|----------------|----------------|----------------|---------|
D|----------------|----------------|----------------|---------| (x4)
A|----------------|----------------|----------------|-4---6---|
E|-4--4-4-4-4-4-4-|-3--3-3-3-3-3-3-|-1--1-1-1-1-1---|---------|
B|----------------|----------------|----------------|---------|


Pre-Chorus 2:
G|----------------|-----------------|----------------|----------------|----------------|----------------|
D|----------------|-----------------|----------------|----------------|----------------|----------------|
A|----------------|-----------------|-4--4-4-4-4-4-4-|-6--6-6-6-6-4-3-|----------------|----------------|
E|-6--6-6-6-6-6-6-|-8--8-8-8-8-8-8--|----------------|----------------|-6--6-6-6-6-6-6-|-8--8-8-8-8-8-8-|
B|----------------|-----------------|----------------|----------------|----------------|----------------|

G|----------------|-----------------|----------|
D|----------------|-----------------|----------|
A|-6--6-6-6-6-6-6-|-6-6-6-6-6-6-6-6-|-4---4----|
E|----------------|-----------------|----------|
B|----------------|-----------------|----------|


Chorus:
G|----------------|-----------------|----------------|----------------|----------------|----------------|
D|----------------|-----------------|----------------|----------------|----------------|----------------|
A|----------------|-----------------|----------------|-4--4-4-4-4-4-4-|----------------|----------------|
E|-4--4-4-4-4-4-4-|-----------------|-1--1-1-1-1-1-1-|----------------|-4--4-4-4-4-4-4-|----------------|
B|----------------|-4--4-4-4-4-4-4--|----------------|----------------|----------------|-4--4-4-4-4-4-4-|

G|----------------|---------|----------------|----------------|----------------|----------------|
D|----------------|---------|----------------|----------------|----------------|----------------|
A|----------------|-4-4-----|----------------|----------------|----------------|-4--4-4-4-4-4-4-|
E|-1--1-1-1-1-1-1-|---------|-4--4-4-4-4-4-4-|----------------|-1--1-1-1-1-1-1-|----------------|
B|----------------|---------|----------------|-4--4-4-4-4-4-4-|----------------|----------------|

G|----------------|----------------|----------------|----------|
D|----------------|----------------|----------------|----------|
A|----------------|----------------|----------------|-4~-------|
E|-4--4-4-4-4-4-4-|----------------|-1--1-1-1-1-1-1-|----------|
B|----------------|-4--4-4-4-4-4-4-|----------------|----------|


Bridge:
G|-(rest)--|----------|------------|----------|
D|-(for)---|----------|-----3--5-6-|----------|
A|-(forty)-|-4--------|-6----------|-4--------|
E|-(beats)-|-----4----|------------|-----4----|
B|---------|----------|------------|----------|

G|-----------------|-----------------|-----------------|-----------------|----------|
D|-----------------|-----------------|-----------------|-----------------|----------|
A|-6-6-6-6-6-6-6-6-|-6-6-6-6-6-6-6-6-|-6-6-6-6-6-6-6-6-|-6-6-6-6-6-6-6-6-|-4---4----|
E|-----------------|-----------------|-----------------|-----------------|----------|
B|-----------------|-----------------|-----------------|-----------------|----------|


Chorus 2:
G|-(rest)--|----------------|----------------|----------------|----------------|----------------|
D|-(for)---|----------------|----------------|----------------|----------------|----------------|
A|-(eight)-|----------------|----------------|-4--4-4-4-4-4-4-|----------------|----------------|
E|-(beats)-|----------------|-1--1-1-1-1-1-1-|----------------|-4--4-4-4-4-4-4-|----------------|
B|---------|-4--4-4-4-4-4-4-|----------------|----------------|----------------|-4--4-4-4-4-4-4-|

G|----------------|----------------|----------------|----------------|----------------|----------------|
D|----------------|----------------|----------------|----------------|----------------|----------------|
A|----------------|-4--4-4-4-4-4-4-|----------------|----------------|----------------|-4--4-4-4-4-4-4-|
E|-1--1-1-1-1-1-1-|----------------|-4--4-4-4-4-4-4-|----------------|-1--1-1-1-1-1-1-|----------------|
B|----------------|----------------|----------------|-4--4-4-4-4-4-4-|----------------|----------------|

G|----------------|----------------|----------------|-----------------|-----------------|-----------------|
D|----------------|----------------|----------------|-----3-3-4-4-6-6-|-----------------|-----5-5-6-6-8-8-|
A|----------------|----------------|----------------|-4-4-------------|-----3-3-4-4-6-6-|-6-6-------------|
E|-4--4-4-4-4-4-4-|----------------|-1--1-1-1-1-1-1-|-----------------|-4-4-------------|-----------------|
B|----------------|-4--4-4-4-4-4-4-|----------------|-----------------|-----------------|-----------------|

G|-3-3-------------|-----------------|-----------------|-----------------|-5-3---3---------|-----------------|
D|-----6-6-5-5-3-3-|-----3-3-4-4-6-6-|-----------------|-----5-5-6-6-8-8-|-----6---6-5-3---|-----3-3-4-4-6-6-|
A|-----------------|-4-4-------------|-----3-3-4-4-6-6-|-6-6-------------|---------------6-|-4-4-------------|
E|-----------------|-----------------|-4-4-------------|-----------------|-----------------|-----------------|
B|-----------------|-----------------|-----------------|-----------------|-----------------|-----------------|

G|-----------------|-----------------|-------11----11-13-14-11-|-----------------|-----------------|
D|-----------------|-----5-5-6-6-7-7-|-11h14----14-------------|-----3-3-4-4-6-6-|-----------------|
A|-----3-3-4-4-6-6-|-6-6-------------|-------------------------|-5-5-------------|-----3-3-4-4-6-6-|
E|-4-4-------------|-----------------|-------------------------|-----------------|-4-4-------------|
B|-----------------|-----------------|-------------------------|-----------------|-----------------|

G|-----------------|-----------------|------|
D|-----5-5-6-6-7-7-|-----------------|------|
A|-6-6-------------|-8-8-8-8-8-8-8-8-|-5----|
E|-----------------|-----------------|------|
B|-----------------|-----------------|------|


Ending:
G|-------------|----------------|
D|---5-6---5-8-|----------------|
A|-4-----6-----|----------------|
E|-------------|-5~-------------|
B|-------------|----------------|


************************************

| ~  Vibrato

************************************
ⓘ Bass guitar tab for 'Id Do Anything' by Simple Plan, an alternative rock band formed in 1999 from Montréal, Québec. Simple Plan is known for their gritty rock/pop music.

Almost there ...

Sign in to get your own page with links to favourite songs and more. You are just one click away...

Login with Facebook Login with Google