Log in

One click and you are in

Login with Facebook Login with Google

Why sign up and log in

Guitar Tabs Explorer
Simple Plan bass tabs for I dont wanna go to bed

I Don't Wanna Go To Bed bass tab by Simple Plan

Simple Plan bass tabs for I dont wanna go to bed

Bass tabs

Intro
G|-----------------|
D|-----------------|
A|-----------------|
E|-12\14-12-10-12--|


Verse
G|----7-------5-7--|----5---------3---|----3-------------|---5---5---5-------| 2x
D|-----------------|------------------|------------------|-------------------|
A|-5---------------|-3----------------|-1--------1-1-1---|-3---3---3---3-----|
E|-----------------|------------------|------------------|-------------------|

G|----7-------5-7--|----5-----------5-|----3-------------|-------------------|
D|-----------------|------------5-7---|------------------|-------------------|
A|-5-----5-5-5-----|-3----3-3---------|-1--------1-1-1---|-3--3--3--3------3-|
E|-----------------|------------------|------------------|-------------3-6---|

G|----7-------5-7--|----5-----------5-|----3-------------|-------------------|
D|-----------------|------------5-7---|------------------|-------------------|
A|-5-----5-5-5-----|-3----3-3---------|-1--------1-1-1---|-------------------|
E|-----------------|------------------|------------------|-------------------|


Chorus
G|---7-----------10|---5-----------5--|----3-------------|---5---5---5---5---|
D|-------10h12p10--|------------5-7---|------------------|-------------------|
A|-5---------------|-3----------------|-1--------1-1-1---|-3---3---3---3-----|
E|-----------------|------------------|------------------|-------------------|

G|---7-----------10|---5-----------5--|----3-------------|-------------------|
D|-------10h12p10--|------------5-7---|------------------|-------------------|
A|-5---------------|-3----------------|-1--------1-1-1---|-------------------|
E|-----------------|------------------|------------------|-------------------|

ⓘ Bass guitar tab for 'I Dont Wanna Go To Bed' by Simple Plan, an alternative rock band formed in 1999 from MontrĂ©al, QuĂ©bec. Simple Plan is known for their gritty rock/pop music.

Almost there ...

Sign in to get your own page with links to favourite songs and more. You are just one click away...

Login with Facebook Login with Google