Log in

One click and you are in

Login with Facebook Login with Google

Why sign up and log in

Guitar Tabs Explorer
Simple Plan bass tabs for Holding on

Bass tabs

  • Tuning: Half-Step Down
  • Difficulty: Beginner
Intro
Gb---------------------------------------
Db---------------------------------------
Ab---/7~-----0~-----7-(x32)---0-(x24)----
Eb---------------------------------------

Gb------------------------------------------------------------------
Db------------------------------------------------------------------
Ab------------------7--7---7-7-7-7----0--0--0-0-0-0---0--0--2--2----
Eb--0--0--0-0-0-0---------------------------------------------------

Gb--------------------------------------------------------------------
Db--------------------------------------------------------------------
Ab------------------7--7---7-7-7-7----0--0--0-0-0-0---12--12--2--2----
Eb--0--0--0-0-0-0-----------------------------------------------------



Verse
Gb-------------------------------------------------------------------------------------------
Db-------------------------------------------------------------------------------------------
Ab--7-(x16)--0-(x16)---7-(x16)---0-(x16)---7-(x16)---0-(x16)---4-(x8)--2-(x8)--7-(x8)--0~----
Eb-------------------------------------------------------------------------------------------


Chorus
(x2)
Gb---------------------------------------
Db---------------------------------------
Ab--7-(x8)--2-(x8)-------------0-(x8)----
Eb-------------------2-(x8)--------------

(x1)
Gb-------------------------------------
Db-------------------------------------
Ab--4-(x8)--2-(x8)-----------0-(x8)----
Eb------------------2-(x8)-------------

(x1)
Gb-----------------------------------
Db-----------------------------------
Ab--------------------4-(x8)---2~----
Eb--0-(x8)---5-(x8)------------------



Break
Gb-------------------------------------------------------------------------
Db------------------------------------------------------------------------
Ab----------------------7--7---7-7-7-7----0--0--0-0-0-0---12--12--2--2----
Eb--0--0--0-0-0-0---------------------------------------------------------

Gb------------------------------------------------------------------------
Db------------------------------------------------------------------------
Ab----------------------7--7---7-7-7-7----0--0--0-0-0-0---12--12--2--2----
Eb--0--0--0-0-0-0---------------------------------------------------------


Verse 2
Gb------------------------------------------------------------------------------
Db-------------------------------------------------------------------7-----7----
Ab--7-(x16)--0-(x16)---7-(x16)---0-(x16)---4-(x8)--2-(x8)--7-(x8)-------7-------
Eb------------------------------------------------------------------------------


Chorus 2
(x2)
Gb--------------------------------------
Db--------------------------------------
Ab--7-(x8)--2-(x8)------------0-(x8)----
Eb------------------2-(x8)--------------

(x1)
Gb-------------------------------------
Db-------------------------------------
Ab--4-(x8)--2-(x8)-----------0-(x8)----
Eb------------------2-(x8)-------------

(x1)
Gb---------------------------------------
Db---------------------------------------
Ab--------------------4-(x8)---2-(x8)----
Eb--0-(x8)---5-(x8)----------------------


Bridge
Gb---------------------------------------------------------------
Db--7-(x8)----------------7-4-6----7-(x8)---------------7-4-6----
Ab-----------4-(x3)---2--------------------7-(x3)--2-------------
Eb---------------------------------------------------------------

Gb-----------------------------------------------------
Db--7-(x8)----------------7-4-6----7-(x8)--------------
Ab-----------4-(x3)---2----------------------2-(x8)----
Eb-----------------------------------------------------


Fill
Gb----------------------------------------------------------
Db--------------------------------------9-------------------
Ab----------------------------4-(x8)-------9----------------
Eb--0~------0-(x8)---5-(x8)-------------------7--5--7--5----


Final Chorus
(x2)
Gb---------------------------------------
Db---------------------------------------
Ab--7-(x8)--2-(x8)-------------0-(x8)----
Eb-------------------2-(x8)--------------

(x1)
Gb-------------------------------------
Db-------------------------------------
Ab--4-(x8)--2-(x8)-----------0-(x8)----
Eb------------------2-(x8)-------------

(x2)
Gb---------------------------------------
Db---------------------------------------
Ab--------------------4-(x8)---2-(x8)----
Eb--0-(x8)---5-(x8)----------------------

(x1)
Gb-------------------------------------------------------
Db---------------------------------9---------------------
Ab------------------------4-(x8)------9------------------
Eb--0-(x8)---5-(x8)----------------------7---5-4-2-0~----
ⓘ Bass guitar tab for 'Holding On' by Simple Plan, an alternative rock band formed in 1999 from MontrĂ©al, QuĂ©bec. Simple Plan is known for their gritty rock/pop music.

Almost there ...

Sign in to get your own page with links to favourite songs and more. You are just one click away...

Login with Facebook Login with Google