Log in

One click and you are in

Login with Facebook Login with Google

Why sign up and log in

Guitar Tabs Explorer
Simple Plan bass tabs for Dont wanna think about you

Don't Wanna Think About You bass tab by Simple Plan

Simple Plan bass tabs for Dont wanna think about you

Bass tabs

Tuning: Half-Step Down (Eb Ab Db Gb)

Key: Db

Difficulty: Intermediate

intro:
Gb|-------------------------------------------------------------|
Db|-------------------------------------------------------------|
Ab|-------------------------------------------------------------|
Eb|-------------------------------------------------------------|

Gb|-------------------------------------------------------------|
Db|-------------------------------------------------------------|
Ab|-5-5-5-5-5-5-5-5-5-5-5-5-10-10-10-10-10-10-12-12-12-12-12-12-|
Eb|-------------------------------------------------------------|

Gb|-------------------------------------------------------------|
Db|-------------------------------------------------------------|
Ab|-5-5-5-5-5-5-5-5-5-5-5-5-10-10-10-10-10-10-12----------------|
Eb|-------------------------------------------------------------|



Verse 1:

Gb|-------------------------------------------------------------|
Db|-------------------------------------------------------------|
Ab|-5----------------------/12----------------------------------|
Eb|-------------------------------------------------------------|

Gb|-------------------------------------------------------------|
Db|-------------------------------------------------------------|
Ab|-5-----------------7--9--10----------------10\---------------|
Eb|-------------------------------------------------------------|



Pre-Chorus 1:

Gb|-------------------------------------------------------------|
Db|-------------------------------------------------------------|
Ab|-0-0-0-0-0-0-------------12-12-12-12-12-12-10----------------|
Eb|-------------3-3-3-3-3-3-------------------------------------|



Chorus 1:

Gb|-------------------------------------------------|
Db|-------------------------------------------5-5-5-|
Ab|-5-5-5-5-5-5-0-0-0-0-0-0-2-2-2-2-2-2-------------|
Eb|-------------------------------------3-3-3-------|

Gb|-------------------------------------------------|
Db|-------------------------------------------------|
Ab|-5-5-5-5-5-5-0-0-0-0-0-0-2-2-2-2-2-2-0-0-0-0-0-0-|
Eb|-------------------------------------------------|

Gb|-------------------------------------------------|
Db|-------------------------------------------------|
Ab|-------------------------------------------------|
Eb|-0-0-0-0-0-2-3-3-3-3-3-3-0-0-0-0-0-2-3-----3-----|


Interlude:

Gb|-------------------------------------------------------------|
Db|-------------------------------------------------------------|
Ab|-5-5-5-5-5-5-5-5-5-5-5-5-10-10-10-10-10-10-12-12-12-12-12-12-|
Eb|-------------------------------------------------------------|

Gb|-------------------------------------------------------------|
Db|-------------------------------------------------------------|
Ab|-5-5-5-5-5-5-5-5-5-5-5-5-10-10-10-10-10-10-12----------------|
Eb|-------------------------------------------------------------|



Verse 2:

Gb|-------------------------------------------------|
Db|-------------------------7-7-7-7-7-7-7-7-7-7-7-7-|
Ab|-5-5-5-5-5-5-5-5-5-5-5-5-------------------------|
Eb|-------------------------------------------------|

Gb|-------------------------------------------------------------|
Db|-------------------------------------------------------------|
Ab|-5-5-5-5-5-5-5-5-5-5-7-9-10-10-10-10-10-10-10-10-10-10-10-10-|
Eb|-------------------------------------------------------------|



Pre-Chorus 2:

Gb|-------------------------------------------------------------|
Db|-------------------------------------------------------------|
Ab|-0-0-0-0-0-0-------------12-12-12-12-12-12-10-10-10-10-------|
Eb|-------------3-3-3-3-3-3-------------------------------------|



Chorus 2:

Gb|-------------------------------------------------|
Db|-------------------------------------------5-5-5-|
Ab|-5-5-5-5-5-5-0-0-0-0-0-0-2-2-2-2-2-2-------------|
Eb|-------------------------------------3-3-3-------|

Gb|-------------------------------------------------|
Db|-------------------------------------------------|
Ab|-5-5-5-5-5-5-0-0-0-0-0-0-2-2-2-2-2-2-0-0-0-0-0-0-|
Eb|-------------------------------------------------|

Gb|-------------------------------------------------|
Db|-------------------------------------------------|
Ab|-------------------------------------------------|
Eb|-0-0-0-0-0-2-3-3-3-3-3-3-0-0-0-0-0-2-3-3-3-3-3-3-|

Gb|-------------------------------------------------------------------|
Db|-------------------------------------------------------------------|
Ab|-7-7-7-7-7-9-10-10-10-10-10-10-12-12-12-12-12-12-12-12-12-12-12-12-|
Eb|-------------------------------------------------------------------|



Bridge:

Gb|-------------------------------------------------|
Db|-------------------------------------------------|
Ab|-2-2-2-2-----------------0-0-0-0-0-0-5-5-5-4-4-4-|
Eb|-------------3-3-3-3-----------------------------|

Gb|-------------------------------------------------|
Db|-------------------------------------------------|
Ab|-2-2-2-2-----------------0-0-0-0-0-0-5-5-5-4-4-4-|
Eb|-------------3-3-3-3-----------------------------|

Gb|-------------------------------------------------------|
Db|-------------------------7-7-7-7-7---------------------|
Ab|-2-2-2-2-----5-5-5-5---------------5/12-12-12-12-12-12-|
Eb|-------------------------------------------------------|

Gb|-------------------------------------------------------------|
Db|-------------------------------------------------------------|
Ab|-5-----------------------------------------------------------|
Eb|-------------------------------------------------------------|



Chorus 3:

Gb|-------------------------------------------------|
Db|-------------------------------------------5-5-5-|
Ab|-5-5-5-5-5-5-0-0-0-0-0-0-2-2-2-2-2-2-------------|
Eb|-------------------------------------3-3-3-------|

Gb|-------------------------------------------------|
Db|-------------------------------------------------|
Ab|-5-5-5-5-5-5-0-0-0-0-0-0-2-2-2-2-2-2-0-0-0-0-0-0-|
Eb|-------------------------------------------------|

Gb|-------------------------------------------------|
Db|-------------------------------------------------|
Ab|-------------------------2-2-2-2-2-2-0-0-0-0-0-0-|
Eb|-0-0-0-0-0-2-3-3-3-3-3-3-------------------------|

Gb|---------------------------|
Db|---------------------------|
Ab|-7-7-7-7-7-9-10-----10-----|
Eb|---------------------------|



Outro:

Gb|-------------------------------------------------|
Db|-------------------------------------------------|
Ab|-5-5-5-5-5-5-0-0-0-0-0-0-------------0-0-0-0-0-0-|
Eb|-------------------------3-3-3-3-3-3-------------|

Gb|-----------------------------------------------------|
Db|-----------------------------------------------------|
Ab|-5-5-5-5-5-5-0-0-0-0-0-0-2-2-2-2-2-2-10-10-10-10-9-7-|
Eb|-----------------------------------------------------|

Gb|-------------------------------------------------|
Db|-------------------------------------------------|
Ab|-5-5-5-5-5-5-0-0-0-0-0-0-------------0-0-0-0-0-0-|
Eb|-------------------------3-3-3-3-3-3-------------|

Gb|-------------------------|
Db|-------------------------|
Ab|-5-5-5-5-5-5-7-7-7-7-7-7-|
Eb|-------------------------|

Gb|---------------------------------------------------------------|
Db|---------------------------------------------------------------|
Ab|-10-10-10-10-------10-10-10-10-------10-10-10-10-12-10-9-------|
Eb|---------------------------------------------------------3-----|




************************************

| x  Dead note
| g  Grace note
| (n) Ghost note
| h  Hammer-on
| p  Pull-off
| r  Release
| >  Accented note
| t  Tapping
| b  Bend
| br Bend release
| pb Pre-bend
| pbr Pre-bend release
| /  Slide up
| \  Slide down
| ~  Vibrato
| s  Slap
| P  Pop
| PM Palm mute
| TR Trill
| N  Tremolo

************************************
ⓘ Bass guitar tab for 'Dont Wanna Think About You' by Simple Plan, an alternative rock band formed in 1999 from Montréal, Québec. Simple Plan is known for their gritty rock/pop music.

Almost there ...

Sign in to get your own page with links to favourite songs and more. You are just one click away...

Login with Facebook Login with Google