Log in

One click and you are in

Login with Facebook Login with Google

Why sign up and log in

Guitar Tabs Explorer
Simple Plan tabs for Crash and burn

Guitar tabs

intro/fill (clean)  guitar 1
e--0---0-000--3-1-0-1----13-12--13-12--|
b-----------------------------13-----13|
g--------------------------------------|
d--------------------------------------|
a--------------------------------------|
e--------------------------------------|
repeat that once but the 2nd time add this at the end.
e---13-12--13-12---------|
b--------13-----13-15-13-|
g------------------------|
d------------------------|
a------------------------|
e------------------------|

 verse 1 & intro guitar 2  (distortion)

e---------------------------------------------------------------------------|
b---------------------------------------------------------------------------|
g---------------------------------------------------------------------------|
d-10-10-10-10-10-10-10-10-10-10-10-10----3-3-3-3-3-3-3-3-3-3-3-3------------|
a-10-10-10-10-10-10-10-10-10-10-10-10----3-3-3-3-3-3-3-3-3-3-3-3------------|
e--8--8--8--8--8--8--8--8--8--8--8--8----1-1-1-1-1-1-1-1-1-1-1-1------------|

continued...

e---------------------------------------------------------------------------|
b---------------------------------------------------------------------------|
g---------------------------------------------------------------------------|
d--7-7-7-7-7-7-7-7-7-7-------3-3-3-----3-3-3--------------------------------|
a--7-7-7-7-7-7-7-7-7-7-------3-3-3-----3-3-3--------------------------------|
e--5-5-5-5-5-5-5-5-5-5-------1-1-1-----1-1-1--------------------------------|

guitar 1 plays the same as guitar 2 in the verse.

chorus-guitar 2  (distortion)
e---------------------------------------------------------------------------|
b---------------------------------------------------------------------------|
g---------------------------------------------------------------------------|
d--7-7-7-7-7---3-3-3-3-3---10-10-10-10-10---5-5-5-5-5-----------------------|
a--7-7-7-7-7---3-3-3-3-3---10-10-10-10-10---5-5-5-5-5-----------------------|
e--5-5-5-5-5---1-1-1-1-1----8--8--8--8--8---3-3-3-3-3-----------------------|


chorus-guitar 1. NOTE: I'm not sure if this part is correct so e-mail me with corrections or comments.

e-13/-----20--20-20-20-19-19-19---|
b---------------------------------|
g---------------------------------|
d---------------------------------|
a---------------------------------|
e---------------------------------|


  Outro-guitar 1  (this is also the bridge/fill thingy in the middle)

e---14---14---14---14---14---14---14----12---12---12--12--12--12--12/3-----|
b-14---14---14---14---14---14---14----12---12---12--12--12--12--12---------|
g--------------------------------------------------------------------------|
d--------------------------------------------------------------------------|
a--------------------------------------------------------------------------|
e--------------------------------------------------------------------------|

  Outro-guitar 2

e--------------------------------------------------------------------------|
b--------------------------------------------------------------------------|
g--------------------------------------------------------------------------|
d---10-10-10-10-10-10-10-10-10-10-10-10--3-3-3-3-3-3-3-3-3-3-3-3-----------|
a---10-10-10-10-10-10-10-10-10-10-10-10--3-3-3-3-3-3-3-3-3-3-3-3-----------|
e----8--8--8--8--8--8--8--8--8--8--8--8--1-1-1-1-1-1-1-1-1-1-1-1-----------|
ⓘ Guitar tab for 'Crash And Burn' by Simple Plan, an alternative rock band formed in 1999 from Montréal, Québec. Simple Plan is known for their gritty rock/pop music.

Almost there ...

Sign in to get your own page with links to favourite songs and more. You are just one click away...

Login with Facebook Login with Google