Log in

One click and you are in

Login with Facebook Login with Google

Why sign up and log in

Guitar Tabs Explorer
Simple Plan bass tabs for Cant keep my hands off you

Can't Keep My Hands Off You bass tab by Simple Plan

Simple Plan bass tabs for Cant keep my hands off you

Bass tabs

Track 2 from Get Your Heart On!


Tuning Standard

Bass comes in after Guitar Intro - X4

          Intro
G |-----------------------|-------------------------|
D |-----------------------|-------------------------|
A |--5---5-5--------------|-------------------------| X2
E |--------------5---5-5--|--7------7--7--5----5-5--|

G |----------------------|--------------------|----------------------|
D |----------------------|--------------------|----------------------|
A |--5-5-5-5-------------|--------------------|--5-5-5-5-------------|
E |-------------5-5-5-5--|--7-7-7-7--3-3-3-3--|-------------5-5-5-5--|

|------------------|
|------------------|
|------------------|
|--7-7-7-7--3-3-3--|


   Verse
G |---------|
D |---------|
A |---------|
E |--5~~~---|

G |-----------------------|-------------------------|
D |-----------------------|-------------------------|
A |--5---5-5--------------|-------------------------|
E |--------------5---5-5--|--7------7--7--5----5-5--|

G |---------|
D |---------|
A |---------|
E |--5~~~---|

G |-----------------------|-------------------------|
D |-----------------------|-------------------------|
A |--5---5-5--------------|-------------------------| X2
E |--------------5---5-5--|--7------7--7--5----5-5--|


               Pre Chorus
G |-----------------|-----------------|-----------------|-------------|
D |-----------------|-----------------|-----------------|-------------|
A |--5---5---5---5--|-----------------|-----------------|-------------|
E |-----------------|--5---5---5---5--|--7---7---7---7--|--3---3---3--|

                     Chorus
G |----------------------|--------------------|----------------------|-------------------|
D |----------------------|--------------------|----------------------|-------------------|
A |--5-5-5-5-------------|--------------------|--5-5-5-5-------------|-------------------|
E |-------------5-5-5-5--|--7-7-7-7--3-3-3-3--|-------------5-5-5-5--|--3-3-3-3-3-3-3-3--|

G |----------------------|--------------------|--------------------|--------------------|
D |----------------------|--------------------|--------------------|--------------------|
A |--5-5-5-5-------------|--------------------|--------------------|--------------------|
E |-------------5-5-5-5--|--7-7-7-7--3-3-3-3--|--3-3-3-3--5-5-5-5--|--7-7-7-7--3-3-3-3--|

G |----------------|
D |----------------|
A |----------------|
E |--3-3-3-3-5~~~--|

                      Pre verse
G |----------------------|--------------------|----------------------|------------------|
D |----------------------|--------------------|----------------------|------------------|
A |--5-5-5-5-------------|--------------------|--5-5-5-5-------------|------------------|
E |-------------5-5-5-5--|--7-7-7-7--3-3-3-3--|-------------5-5-5-5--|--7-7-7-7--3-3-3--|


  Verse 2
G |---------|
D |---------|
A |---------|
E |--5~~~---|

G |-----------------------|-------------------------|
D |-----------------------|-------------------------|
A |--5---5-5--------------|-------------------------|
E |--------------5---5-5--|--7------7--7--5----5-5--|

G |---------|
D |---------|
A |---------|
E |--5~~~---|

G |-------7---------|
D |-----------7-----|
A |--5--------------|
E |-----------------|

G |-----------------------|-------------------------|
D |-----------------------|-------------------------|
A |--5---5-5--------------|-------------------------|
E |--------------5---5-5--|--7------7--7--5----5-5--|

Repeat Pre Chorus
Repeat Chorus
Repeat Verse
Repeat Pre Verse

   Bridge
G |----------|
D |----------|
A |--5~~~----|
E |----------|

G |-----------------|-----------------|-----------------|-----------------|
D |-----------------|-----------------|-----------------|-----------------|
A |--5----------4---|-----------------|--5----------4---|-----------------| X2
E |-----------------|--3----------5---|-----------------|--3----------5---|

Repeat Chorus

           Outro X2
G |----------------------|---------------------|
D |----------------------|---------------------|
A |--5-5-5-5-------------|---------------------|
E |-------------5-5-5-5--|--7-7-7-7---3-3-3-3--|

G |----------------------|-------------------|
D |----------------------|-------------------|
A |--5-5-5-5-------------|-------------------|
E |-------------5-5-5-5--|--7-7-7-7---3-3-3--|

    End
G |----------|
D |----------|
A |--5~~~----|
E |----------|
ⓘ Bass guitar tab for 'Cant Keep My Hands Off You' by Simple Plan, an alternative rock band formed in 1999 from Montréal, Québec. Simple Plan is known for their gritty rock/pop music.

Almost there ...

Sign in to get your own page with links to favourite songs and more. You are just one click away...

Login with Facebook Login with Google