Log in

One click and you are in

Login with Facebook Login with Google

Why sign up and log in

Guitar Tabs Explorer
Simple Plan bass tabs for Boom

Bass tabs with lyrics

Standard tuning, Drop D (DADG)

🏷Legend:
h = hammer on
p = pull off
/ = slide up
\ = slide down
r = rest
s = 16th note (appears above bar)


INTRO:
                  ( x2 )
    (Rest x2)    ssssssss sssssss ssssssss sssssss
G |-----------------||-----------------|-----------------|
D |-----------------||-----------------|-----------------|
A |-----------------||-----------------|-22222222r0000000|
D |-r---------------||-55555555r0000000|-----------------|
  1 & 2 & 3 & 4 &  1 & 2 & 3 & 4 &  1 & 2 & 3 & 4 &


VERSE 1 (x2):                      _________________ _________________
                            /1        /2
  ssssssss sssssss ssssssss sssssss ssssssss sssssss| ssssssss sssssss| ssssssss sssssss
G |-----------------|-----------------|-----------------|-----------------|-----------------|
D |-----------------|----------------h|-----------------|-----------------|-----------------|
A |----------5555555|-22222222r0000002|----------5555555|-22222222r0005757|-22222222r00000XX|
D |-55555555r-------|-----------------|-55555555r-------|-----------------|-----------------|
  1 & 2 & 3 & 4 &  1 & 2 & 3 & 4 &  1 & 2 & 3 & 4 &  1 & 2 & 3 & 4 &  1 & 2 & 3 & 4 &


PRE-CHORUS (x2):

  ssssssss sssssss ssssssss sssssss
G |-----------------|-----------------|
D |-----------------|-----------------|
A |-----------------|-22222222r0000000|
D |-55555555r0000000|-----------------|
  1 & 2 & 3 & 4 &  1 & 2 & 3 & 4 &



CHORUS 1:

  ssssssss sssssss ssssssss sssssss ssssssss sssssss ssssssss sssssss
G |-----------------|-----------------|-----------------|-------------7979|-----------------|
D |-----------------|-----------------|-----------------|-99999999r777----|-5---------------|
A |-----------------|-22222222r0000000|-----------------|-----------------|-----------------|
D |-55555555r0000000|-----------------|-55555555r0000000|-----------------|-----------------|
  1 & 2 & 3 & 4 &  1 & 2 & 3 & 4 &  1 & 2 & 3 & 4 &  1 & 2 & 3 & 4 &  1 & 2 & 3 & 4 &


VERSE 2:

  ssssssss sssssss ssssssss sssssss ssssssss sssssss ssssssss
G |-----------------|-----------------|-----------------|-----------------|
D |-----------------|-----------------|---------------57|-99999999r-------|
A |----------5555555|-22222222r0000000|----------55555--|-----------------|
D |-55555555r-------|-----------------|-55555555r-------|-----------------|
  1 & 2 & 3 & 4 &  1 & 2 & 3 & 4 &  1 & 2 & 3 & 4 &  1 & 2 & 3 & 4 &

  ssssssss sssssss ssssssss sssssss ssssssss sssssss ssssssss sssssss
G |-----------------|-----------------|-----------------|-----------------|
D |-----------------|--------------h-h|----------------h|-----------------|
A |----------5555555|-22222222r0005757|----------5555557|-22222222r00000XX|
D |-55555555r-------|-----------------|-55555555r-------|-----------------|
  1 & 2 & 3 & 4 &  1 & 2 & 3 & 4 &  1 & 2 & 3 & 4 &  1 & 2 & 3 & 4 &


PRE-CHORUS (x2):

  ssssssss sssssss ssssssss sssssss
G |-----------------|-----------------|
D |-----------------|-----------------|
A |-----------------|-22222222r0000000|
D |-55555555r0000000|-----------------|
  1 & 2 & 3 & 4 &  1 & 2 & 3 & 4 &


CHORUS 2:

  ssssssss sssssss ssssssss sssssss ssssssss sssssss ssssssss sssssss
G |-----------------|-----------------|-----------------|-------------97--|-----------------|
D |-----------------|-----------------|-----------------|-99999999r777--97|-5---------------|
A |-----------------|-22222222r0000000|-----------------|-----------------|-----------------|
D |-55555555r0000000|-----------------|-55555555r0000000|-----------------|-----------------|
  1 & 2 & 3 & 4 &  1 & 2 & 3 & 4 &  1 & 2 & 3 & 4 &  1 & 2 & 3 & 4 &  1 & 2 & 3 & 4 &


BRIDGE:
                          s s s s
G |-----------------|-----------------|-------------7p0-7h9|-----------------|
D |-----------------|-----------------|--------------------|-5---------------|
A |-0---------------|-2---------------|-0------------------|-----------------|
D |-----------------|-----------------|--------------------|-----------------|
  1 & 2 & 3 & 4 &  1 & 2 & 3 & 4 &  1 & 2 & 3 & 4  &  1 & 2 & 3 & 4 &

                          ss
G |-----------------|---------------6-|/7-----------97\6-|-----------------|
D |-----------------|-----------------|------------------|-5---------------|
A |-0---------------|-2---------------|------------------|-----------------|
D |-----------------|-----------------|------------------|-----------------|
  1 & 2 & 3 & 4 &  1 & 2 & 3 & 4 &  1 & 2 & 3 & 4 &  1 & 2 & 3 & 4 &


BREAKDOWN:
    (Rest x2)
G |-----------------|
D |-----------------|
A |-----------------|
D |-r---------------|
  1 & 2 & 3 & 4 &


PRE-CHORUS (x4):

  ssssssss sssssss ssssssss sssssss
G |-----------------|-----------------|
D |-----------------|-----------------|
A |-----------------|-22222222r0000000|
D |-55555555r0000000|-----------------|
  1 & 2 & 3 & 4 &  1 & 2 & 3 & 4 &


OUT-CHORUS:

  ssssssss sssssss ssssssss sssssss ssssssss sssssss ssssssss sssssss
G |-----------------|-----------------|-----------------|-------------97--|-----------------|
D |-----------------|-----------------|-----------------|-99999999r777--97|-r---------------|
A |-----------------|-22222222r0000000|-----------------|-----------------|-----------------|
D |-55555555r0000000|-----------------|-55555555r0000000|-----------------|-----------------|
  1 & 2 & 3 & 4 &  1 & 2 & 3 & 4 &  1 & 2 & 3 & 4 &  1 & 2 & 3 & 4 &  1 & 2 & 3 & 4 &
ⓘ Bass guitar tab for 'Boom' by Simple Plan, an alternative rock band formed in 1999 from MontrĂ©al, QuĂ©bec. Simple Plan is known for their gritty rock/pop music.

Almost there ...

Sign in to get your own page with links to favourite songs and more. You are just one click away...

Login with Facebook Login with Google