Log in

One click and you are in

Login with Facebook Login with Google

Why sign up and log in

Guitar Tabs Explorer
Nina Simone bass tabs for Feeling good

Bass tabs

Feeling Good - Nina Simone

No bass over first verse

Start at 0.39
G ------------------------------------------------------------------------------------
D --5----5--3----3----------------3-----3--5----5--3----3---------------------3---5---
A ------------------6----6--5--5-----5----------------------6----6--5----5------------
E ------------------------------------------------------------------------------------

G ------------------------------------------------------------------------------------------------------
D --5--3----3------------------3--5----3--5----5--------------------------------------------------------
A -------------6----6--5----5---------------------7---7--6---6--5---5--3---3--------------5--3----3--5--
E ----------------------------------------------------------------------------6---6--5------------------

G ------------------------------------------------------------------------------------------------------
D --5-----5-----5-----5--5----3------------7---5----3-------------4--7--8---5---------------------------
A -----5-----5-----5---------------6----5----------------6----5-----------------6---3-----------6---5---
E --------------------------------------------------------------------------------------6---3-----------

G ------------------------------------------------------------------------------------
D --5----5--3----3----------------3-----3--5----5--3----3---------------------3---5---
A ------------------6----6--5--5-----5----------------------6----6--5----5------------
E ------------------------------------------------------------------------------------

G -------------------------------------------------------------------------------------------
D --5--3----3------------------3--5----3--5----5---------------------------------------------
A -------------6----6--5----5---------------------7---7--6---6--5---5--3---3--------------5--
E ----------------------------------------------------------------------------6---6--5-------

G -----------------------------------------------
D -----------------------------------------------
A --3-----------------3--------6--------5--------
E -----------5-----------------------------------

G ------------------------------------------------------------------------------------
D --5----5--3----3----------------3-----3--5----5--3----3---------------------3---5---
A ------------------6----6--5--5-----5----------------------6----6--5----5------------
E ------------------------------------------------------------------------------------

Almost there ...

Sign in to get your own page with links to favourite songs and more. You are just one click away...

Login with Facebook Login with Google