Log in

One click and you are in

Login with Facebook Login with Google

Why sign up and log in

Guitar Tabs Explorer
Simon & Garfunkel bass tabs for Sound of silence

Sound Of Silence bass tab by Simon & Garfunkel

Simon & Garfunkel bass tabs for Sound of silence

Bass tabs with lyrics

Rest for 1 bar

  [Verse]
      Hello        friend                         a  gain
G|----------------|----------------|----------------|----------------|
D|1---------------|----------------|----------------|1---------------|
A|----------------|4---------------|4---------------|----------------|
E|----------------|----------------|----------------|----------------|

    Be    vision   creep   ing          left    I    sleep   ing
G|----------------|----------------|----------------|----------------|
D|----------------|----------------|----------------|----------------|
A|----------------|2---------------|----------------|2---------------|
E|2---------------|--------2-------|2---------------|--------2-------|

      And vision     that           in      brain      still
G|----------------|----------------|----------------|----------------|
D|----------------|----------------|----------------|--------1-------|
A|--------2-------|2---------------|2---------------|----------------|
E|2---------------|----------------|--------2-------|----------------|

            within Sound         of Silence
G|----------------|----------------|----------------|
D|----------------|----------------|1---------------|
A|----------------|4-------------1-|----------------|
E|--------2-------|----------------|----------------|

  [Verse]
    In    dreams   lone                 n1rrow   cob stone
G|----------------|----------------|----------------|----------------|
D|1---------------|----------------|----------------|1-----1-1-----1-|
A|------------1---|4-----4-4-----4-|4-----4-4-----4-|----------------|
E|----------------|----------------|----------------|----------------|

      neath   of   street             I     collar   cold  damp
G|----------------|----------------|----------------|----------------|
D|----------------|----------------|----------------|----------------|
A|----------------|2-----2---------|----------------|2-----2---------|
E|2-----2-2-----2-|--------2-----2-|2-----2-2-----2-|--------2-----2-|

      When    were     by  flash    neon    light    that    night
G|----------------|----------------|----------------|----------------|
D|----------------|----------------|----------------|----------------|
A|--------2-----2-|--------2-----2-|2-----2---------|2-----2---------|
E|2-----2---------|2-----2---------|--------2-----2-|--------2-----2-|

            and    Sound         of Silence
G|----------------|----------------|----------------|
D|1-----1---------|----------------|1---------------|
A|----------------|4-------------1-|----------------|
E|--------2-----2-|----------------|----------------|

  [Verse]
    And   naked I  saw                ten   people   more
G|----------------|----------------|----------------|----------------|
D|1---1-----------|----------------|----------------|1-----1-1-----1-|
A|--------1---1---|4-----4-4-----4-|4-----4-4-----4-|----------------|
E|----------------|----------------|----------------|----------------|

      People  with speak-ing            people  with lis-tening
G|----------------|----------------|----------------|----------------|
D|----------------|----------------|----------------|----------------|
A|----------------|2-----2---------|----------------|2-----2---------|
E|2-----2-2-----2-|--------2-----2-|2-----2-2-----2-|--------2-----2-|

      People             that       never   share    and no  dare
G|----------------|----------------|----------------|----------------|--------|
D|----------------|----------------|----------------|----------------|--------|
A|--------2-----2-|--------2-----2-|2-----2---------|2-----2---------|--------|
E|2-----2---------|2-----2---------|--------2-----2-|--------2-----2-|2-----2-|

            dis    Sound         of Silence
G|----------------|----------------|----------------|
D|1-----1---------|----------------|1---------------|
A|----------------|4-------------1-|----------------|
E|--------2-----2-|----------------|----------------|

  [Verse]
      Fools   do   know                 silence can  grows
G|----------------|----------------|----------------|----------------|
D|1---1-----------|----------------|----------------|1-----1-1-----1-|
A|--------1---1---|4-----4-4-----4-|4-----4-4-----4-|----------------|
E|----------------|----------------|----------------|----------------|

      Hear    I    teach you            take    I    reach you
G|----------------|----------------|----------------|----------------|
D|----------------|----------------|----------------|----------------|
A|----------------|2-----2---------|----------------|2-----2---------|
E|2-----2-2-----2-|--------2-----2-|2-----2-2-----2-|--------2-----2-|

      But words        like  lent   rain    fell                            and
G|----------------|----------------|----------------|----------------|--------|
D|----------------|----------------|----------------|----------------|--------|
A|--------2-----2-|--------2-----2-|2-----2---------|2-----2---------|--------|
E|2-----2---------|2-----2---------|--------2-----2-|--------2-----2-|2-----2-|

  echoed    and    wells         of Silence
G|----------------|----------------|----------------|
D|1-----1---------|----------------|1---------------|
A|----------------|4-------------1-|----------------|
E|--------2-----2-|----------------|----------------|

 [Verse]
      And     bow  prayed               to  neon     made
G|----------------|----------------|----------------|----------------|
D|1---1-----------|----------------|----------------|1-----1-1-----1-|
A|--------1---1---|4-----4-4-----4-|4-----4-4-----4-|----------------|
E|----------------|----------------|----------------|----------------|

      and sign     warn -ing            In  words    form -ing
G|----------------|----------------|----------------|----------------|
D|----------------|----------------|----------------|----------------|
A|----------------|2-----2---------|----------------|2-----2---------|
E|2-----2-2-----2-|--------2-----2-|2-----2-2-----2-|--------2-----2-|

      And signs    words   prophets written subway   walls    and
G|----------------|----------------|----------------|----------------|
D|----------------|----------------|----------------|----------------|
A|--------2-----2-|--------2-----2-|2-----2---------|2-----2---------|
E|2-----2---------|2-----2---------|--------2-----2-|--------2-----2-|

  halls         an whisper     in   Sounds        of Silence
G|----------------|----------------|----------------|----------------|
D|1---------------|----------------|----------------|1---------------|
A|----------------|----------------|4-------------1-|----------------|
E|----------------|2-----2-2-------|----------------|----------------|
                                    Slow
G|----------------|
D|1---------------|
A|----------------|

Almost there ...

Sign in to get your own page with links to favourite songs and more. You are just one click away...

Login with Facebook Login with Google