Log in

One click and you are in

Login with Facebook Login with Google

Why sign up and log in

Guitar Tabs Explorer
Silk Sonic bass tabs for Fly as me

Bass tabs

Intro:
G|--------------------------------------------------------------------|
D|--------------------------------------------------------------------|
A|-------------------5--6--7-7-5---7--5~~7-----7-7---7-7--------------|
E|---0---3--5--6--7--------------7----------7-------------------------|

G|--------------------------------------------------------------------|
D|--------------------------------------------------------------------|
A|-------------------5--6--7-7-5---7--5~7---5-5-5---5-5-5-------------|
E|---0---3--5--6--7--------------7------------------------------------|


Verse 1:
G|--------------------------------------------------------------------|
D|--------------------------------------------------------------------|
A|-------------------5--6--7-7-5---7--5~7-----7-7---7-7-7-------------|
E|---0---3--5--6--7--------------7----------7-------------------------|

G|--------------------------------------------------------------------|
D|5~7-----------------------------------------------------------------|
A|-------------------5--6--7-7-5---7--5~7-----7-7---7-7---------------|
E|---0---3--5--6--7--------------7----------7-------------------------|


Pre Chorus:
G|--------------------------------------------------------------------|
D|---7-7-7--5-4-5------7-7-7--5---------------5-----------------------|
A|------------------------------7-0-------0-7-------------------------|
E|--------------------------------------------------------------------|

G|--------------------------------------------------------------------|
D|---7-7-7--5-4-5------7-7-7--5---------------------------------------|
A|------------------------------7-0-----------------------------------|
E|--------------------------------------------------------------------|


Chorus:
G|--------------------------------------------------------------------|
D|--------------------------------------------------------------------|
A|-------------------5--6--7-7-5---7--5~7-----7-7---7-7-7-------------|
E|---0---3--5--6--7--------------7----------7-------------------------|

G|--------------------------------------------------------------------|
D|5~7-----------------------------------------------------------------|
A|-------------------5--6--7-7-5---7--5~7-----5-5-5---5-5-5-----------|
E|---0---3--5--6--7--------------7----------7-------------------------|


Verse 2:
G|--------------------------------------------------------------------|
D|--------------------------------------------------------------------|
A|-------------------5--6--7-7-5---7--5~7-----7-7---7-7-7-------------|
E|---0---3--5--6--7--------------7----------7-------------------------|

G|--------------------------------------------------------------------|
D|5~7-----------------------------------------------------------------|
A|-------------------5--6--7-7-5---7--5~7-----7-7---7-7---------------|
E|---0---3--5--6--7--------------7----------7-------------------------|


Pre Chorus:
G|--------------------------------------------------------------------|
D|---7-7-7--5-4-5------7-7-7--5---------------5-----------------------|
A|------------------------------7-0-------0-7-------------------------|
E|--------------------------------------------------------------------|

G|--------------------------------------------------------------------|
D|---7-7-7--5-4-5------7-7-7--5---------------------------------------|
A|------------------------------7-0-----------------------------------|
E|--------------------------------------------------------------------|


Chorus:
G|--------------------------------------------------------------------|
D|--------------------------------------------------------------------|
A|-------------------5--6--7-7-5---7--5~7-----7-7---7-7-7-------------|
E|---0---3--5--6--7--------------7----------7-------------------------|

G|--------------------------------------------------------------------|
D|5~7-----------------------------------------------------------------|
A|-------------------5--6--7-7-5---7--5~7-----5-5-5---5-5-5-----------|
E|---0---3--5--6--7--------------7----------7-------------------------|


Verse 3:
G|--------------------------------------------------------------------|
D|5~7-----------------------------------------------------------------|
A|-------7-7-7-7-7-7-------7-7-7-7-7-7--------------------------------|
E|--------------------------------------------------------------------|

G|--------------------------------------------------------------------|
D|5~7-----------------------------------------5-7-9-------------------|
A|-------7-7-7-7-7-7-------7-7-7-7-7-7----5-7-----------5--5----------|
E|--------------------------------------------------------------------|


Chorus:

G|--------------------------------------------------------------------|
D|--------------------------------------------------------------------|
A|--------------------------------------------------------------------|
E|--------------------------------------------------------------------|

G|------------------------------------0~~~7-7-7-7-7-7-----------------|
D|--------------------------------------------------------------------|
A|--------------------------------------------------------------------|
E|--------------------------------------------------------------------|


Outro:
G|0~~~7-7-7-7-7-7---7-7-7-7-7-7---7-7-7-7-7---------------------------|
D|---------------------------------------------4-4-2---2-2------------|
A|---------------------------------------------------3-----5-2-5-5-3--|
E|-------------------------------------------------------------------5|


☠☠☠☠☠☠☠☠☠☠☠☠☠☠☠☠☠☠☠☠☠☠☠☠☠☠☠☠☠☠☠☠☠☠*

| ~ Slide

☠☠☠☠☠☠☠☠☠☠☠☠☠☠☠☠☠☠☠☠☠☠☠☠☠☠☠☠☠☠☠☠☠☠*
ⓘ Bass guitar tab for 'Fly As Me' by Silk Sonic, a r&b band formed in 2021

Almost there ...

Sign in to get your own page with links to favourite songs and more. You are just one click away...

Login with Facebook Login with Google