Log in

One click and you are in

Login with Facebook Login with Google

Why sign up and log in

Guitar Tabs Explorer
Shrey Singhal Ft. Evelyn Sharma tabs for Khudaai

Guitar tabs

A chord diagramE MajorE |-------|----------------------------------------------------|
A chord diagramBB |-------|--3-----3--2--3-----3--2--3-----3--2--3-----2-------|
A chord diagramG+G |-------|----------------------------------------------------|
A chord diagramD MajorD |-------|----------------------------------------------------|
A chord diagramA augmentedA |-------|----------------------------------------------------|
A chord diagramE MajorE |-------|----------------------------------------------------|


----------------------------------------------------|
--2L----------2--0--------0-------------------------|
-----------------------2----------------------------|
----------------------------------------------------|
----------------------------------------------------|
----------------------------------------------------|


----------------------------------------------------|
--3-----3--2--3-----3--2--3--2--3--2--3-----3--2----|
----------------------------------------------------|
----------------------------------------------------|
----------------------------------------------------|
----------------------------------------------------|


----------------------------------------------------|
--2L----------2--0--------0-------------------------|
-----------------------2----------------------------|
----------------------------------------------------|
----------------------------------------------------|
----------------------------------------------------|


----------------------------------------------------|
--3--2--0-------------------------------------------|
-----------2L-2-------------------------------------|
----------------------------------------------------|
----------------------------------------------------|
----------------------------------------------------|

----------------------------------------------------|
--3--2--0-------------------------------------------|
-----------2L-2-------------------------------------|
----------------------------------------------------|
----------------------------------------------------|
----------------------------------------------------|


----------------------------------------------------|
--2-----2--0--2-----2--0--2-----0-----0L------------|
-----------------------------------2----------------|
----------------------------------------------------|
----------------------------------------------------|
----------------------------------------------------|


----------------------------------------------------|
--0-----------------------------------------0--2----|
----------------------------------------------------|
----------------------------------------------------|
----------------------------------------------------|
----------------------------------------------------|


----------------------------------------------------|
--3--2--3--3-----2-----0--------2-----------0--2----|
--------------------------2-------------------------|
----------------------------------------------------|
----------------------------------------------------|
----------------------------------------------------|


----------------------------------------------------|
--3--2--3--3-----2-----0--------2-----------0-------|
--------------------------2-------------------------|
----------------------------------------------------|
----------------------------------------------------|
----------------------------------------------------|


----------------------------------------------------|
--3-----3--3-----2-----0--------2-----------0--2----|
--------------------------2-------------------------|
----------------------------------------------------|
----------------------------------------------------|
----------------------------------------------------|


----------------------------------------------------|----------------|-------|
--3--2--3--3-----2-----0--------2L----2L------------|--2-------------|-------|
--------------------------2-------------------------|----------------|-------|
----------------------------------------------------|----------------|-------|
----------------------------------------------------|----------------|-------|
----------------------------------------------------|----------------|-------|


----------------------------------------------------|
--3-----3--2--3-----3--2--3-----3--2--3-----2-------|
----------------------------------------------------|
----------------------------------------------------|
----------------------------------------------------|
----------------------------------------------------|


----------------------------------------------------|
--2L----------2--0--------0-------------------------|
-----------------------2----------------------------|
----------------------------------------------------|
----------------------------------------------------|
----------------------------------------------------|


----------------------------------------------------|
--3-----3--2--3-----3--2--3--2--3--2--3-----3--2----|
----------------------------------------------------|
----------------------------------------------------|
----------------------------------------------------|
----------------------------------------------------|


----------------------------------------------------|
--2L----------2--0--------0-------------------------|
-----------------------2----------------------------|
----------------------------------------------------|
----------------------------------------------------|
----------------------------------------------------|


----------------------------------------------------|
--3--2--0-------------------------------------------|
-----------2L-2-------------------------------------|
----------------------------------------------------|
----------------------------------------------------|
----------------------------------------------------|


----------------------------------------------------|
--3--2--0-------------------------------------------|
-----------2L-2-------------------------------------|
----------------------------------------------------|
----------------------------------------------------|
----------------------------------------------------|


----------------------------------------------------|
--2-----2--0--2-----2--0--2-----0-----0L------------|
-----------------------------------2----------------|
----------------------------------------------------|
----------------------------------------------------|
----------------------------------------------------|


----------------------------------------------------|
--0-----------------------------------------0--2----|
----------------------------------------------------|
----------------------------------------------------|
----------------------------------------------------|
----------------------------------------------------|


----------------------------------------------------|
--3--2--3--3-----2-----0--------2-----------0--2----|
--------------------------2-------------------------|
----------------------------------------------------|
----------------------------------------------------|
----------------------------------------------------|



----------------------------------------------------|
--3--2--3--3-----2-----0--------2-----------0-------|
--------------------------2-------------------------|
----------------------------------------------------|
----------------------------------------------------|
----------------------------------------------------|


----------------------------------------------------|
--3-----3--3-----2-----0--------2-----------0--2----|
--------------------------2-------------------------|
----------------------------------------------------|
----------------------------------------------------|
----------------------------------------------------|


----------------------------------------------------|----------------||
--3--2--3--3-----2-----0--------2L----2L------------|--2-------------||
--------------------------2-------------------------|----------------||
----------------------------------------------------|----------------||
----------------------------------------------------|----------------||
----------------------------------------------------|----------------||


🏷Legend
L - tied note
x - dead note
h - hammer on/pull off
b - bend
s - slide
~ - vibrato
g - ghost note
> - accentuated note
t - trill
M - palm mute
. - staccato
P - popping (bass)
S - slapping (bass)
+ - tapping
W - wide vibrato
< - fade in
w - whammy bar
= - tremolo picking
v - brush up
^ - brush down
V - pick stroke up
n - pick stroke down

Almost there ...

Sign in to get your own page with links to favourite songs and more. You are just one click away...

Login with Facebook Login with Google