Log in

One click and you are in

Login with Facebook Login with Google

Why sign up and log in

Guitar Tabs Explorer
Shinedown guitar tabs for Cry for help

Guitar tabs

Tuning: Drop A chord diagramDbDb (A chord diagramDbDb A chord diagramAbAb A chord diagramDbDb A chord diagramGbGb A chord diagramBb majorBb A chord diagramEb MajorEb)


Intro:

Eb|---------------------------------------------------------------------------|
Bb|---------------------------------------------------------------------------|
Gb|---------------------------------------------------------------------------|
Db|---------------------------------------------------------------------------|
Ab|---------------------------------------------------------------------------|
Db|-12b-0-0-12b--0-12b--0-3h5-5-5-0--12b-0-0-12b--0-12b--0-3h5-5-5-0----------|

Eb|---------------------------------------------------------------------------|
Bb|---------------------------------------------------------------------------|
Gb|---------------------------------------------------------------------------|
Db|---------------------------------------------------------------------------|
Ab|---------------------------------------------------------------------------|
Db|-6--6-6-6-6-3--6--6-6-6-6-3p0----------------------------------------------|


Verse 1: Kicks in when the singer says "you've been hiding out..."

0:17

Eb|---------------------------------------------------------------------------|
Bb|---------------------------------------------------------------------------|
Gb|-7-7-7-7--7/10/14-14-14-14-14-13/7-7-7-7-7-7/10/12-12-12-12b---------------|
Db|---------------------------------------------------------------------------|
Ab|-5-5-5-5--5/8/12--12-12-12-12-11/5-5-5-5-5-5/8/10--10-10-10b---------------|
Db|---------------------------------------------------------------------------|

Eb|---------------------------------------------------------------------------|
Bb|---------------------------------------------------------------------------|
Gb|-7-7-7-7--7/10/14-14-14-14-14-13-13/15-15-15-15-15-15-15-15----------------|
Db|---------------------------------------------------------------------------|
Ab|-5-5-5-5--5/8/12--12-12-12-12-11-11/13-13-13-13-13-13-13-13----------------|
Db|---------------------------------------------------------------------------|

Pre-Chorus: starts at 0:39

Eb|---------------------------------------------------------------------------|
Bb|---------------------------------------------------------------------------|
Gb|---------------------------------------------------------------------------|
Db|---------------------------------------------------------------------------|
Ab|---------------------------------------------------------------------------|
Db|-12b-0-0-12b--0-12b--0-3h5-5-5-0--12b-0-0-12b--0-12b--0-3h5-5-5-0----------|

Eb|---------------------------------------------------------------------------|
Bb|---------------------------------------------------------------------------|
Gb|---------------------------------------------------------------------------|
Db|---------------------------------------------------------------------------|
Ab|---------------------------------------------------------------------------|
Db|-6--6-6-6-6-3--6--6-6-6-6-3--6--6-6-6-6-3--6--6-6-6-6-6-3p0----------------|


Chorus: starts at 0:49

Eb|---------------------------------------------------------------------------|
Bb|---------------------------------------------------------------------------|
Gb|-----------5-5-5-5-5/7--------5-5-5-5-5/7--------5-5-5-5-5-----------------|
Db|-0--0-7/3--5-5-5-5-5/7-0-7/3--5-5-5-5-5/7-0-7/3--5-5-5-5-5-----------------|
Ab|-0--0-7/3--3-3-3-3-3/5-0-7/3--3-3-3-3-3/5-0-7/3--3-3-3-3-3-----------------|
Db|-0--0-7/3--------------0-7/3--------------0-7/3----------------------------|


Eb|---------------------------------------------------------------------------|
Bb|---------------------------------------------------------------------------|
Gb|-7--------5-5-5-5-5-5--3-3-3-3-2-2-2-2-------------------------------------|
Db|-7-0-7/3--5-5-5-5-5-5--3-3-3-3-2-2-2-2-------------------------------------|
Ab|-5-0-7/3--3-3-3-3-3-3--1-1-1-1-0-0-0-0-------------------------------------|
Db|---0-7/3-------------------------------------------------------------------|


Verse 2:

Eb|---------------------------------------------------------------------------|
Bb|---------------------------------------------------------------------------|
Gb|---------------------------------------------------------------------------|
Db|---------------------------------------------------------------------------|
Ab|---------------------------------------------------------------------------|
Db|-12b-0-0-12b--0-12b--0-3h5-5-5-0--12b-0-0-12b--0-12b--0-3h5-5-5-0----------|

Eb|---------------------------------------------------------------------------|
Bb|---------------------------------------------------------------------------|
Gb|---------------------------------------------------------------------------|
Db|---------------------------------------------------------------------------|
Ab|---------------------------------------------------------------------------|
Db|-6--6-6-6-6-3--6--6-6-6-6-3p0----------------------------------------------|

Eb|---------------------------------------------------------------------------|
Bb|---------------------------------------------------------------------------|
Gb|-7-7-7-7--7/10/14-14-14-14-14-13/7-7-7-7-7-7/10/12-12-12-12b---------------|
Db|---------------------------------------------------------------------------|
Ab|-5-5-5-5--5/8/12--12-12-12-12-11/5-5-5-5-5-5/8/10--10-10-10b---------------|
Db|---------------------------------------------------------------------------|

Eb|---------------------------------------------------------------------------|
Bb|---------------------------------------------------------------------------|
Gb|-7-7-7-7--7/10/14-14-14-14-14-13-13/15-15-15-15-15-15-15-15----------------|
Db|---------------------------------------------------------------------------|
Ab|-5-5-5-5--5/8/12--12-12-12-12-11-11/13-13-13-13-13-13-13-13----------------|
Db|---------------------------------------------------------------------------|


Pre-Chorus:

Eb|---------------------------------------------------------------------------|
Bb|---------------------------------------------------------------------------|
Gb|---------------------------------------------------------------------------|
Db|---------------------------------------------------------------------------|
Ab|---------------------------------------------------------------------------|
Db|-12b-0-0-12b--0-12b--0-3h5-5-5-0--12b-0-0-12b--0-12b--0-3h5-5-5-0----------|

Eb|---------------------------------------------------------------------------|
Bb|---------------------------------------------------------------------------|
Gb|---------------------------------------------------------------------------|
Db|---------------------------------------------------------------------------|
Ab|---------------------------------------------------------------------------|
Db|-6--6-6-6-6-3--6--6-6-6-6-3--6--6-6-6-6-3--6--6-6-6-6-6-3p0----------------|


Chorus:

Eb|---------------------------------------------------------------------------|
Bb|---------------------------------------------------------------------------|
Gb|-----------5-5-5-5-5/7--------5-5-5-5-5/7--------5-5-5-5-5-----------------|
Db|-0--0-7/3--5-5-5-5-5/7-0-7/3--5-5-5-5-5/7-0-7/3--5-5-5-5-5-----------------|
Ab|-0--0-7/3--3-3-3-3-3/5-0-7/3--3-3-3-3-3/5-0-7/3--3-3-3-3-3-----------------|
Db|-0--0-7/3--------------0-7/3--------------0-7/3----------------------------|

Eb|---------------------------------------------------------------------------|
Bb|---------------------------------------------------------------------------|
Gb|-7--------5-5-5-5-5-5--3-3-3-3-2-2-2-2-------------------------------------|
Db|-7-0-7/3--5-5-5-5-5-5--3-3-3-3-2-2-2-2-------------------------------------|
Ab|-5-0-7/3--3-3-3-3-3-3--1-1-1-1-0-0-0-0-------------------------------------|
Db|---0-7/3-------------------------------------------------------------------|


Bridge Part 1:

Eb|---------------------------------------------------------------------------|
Bb|---------------------------------------------------------------------------|
Gb|---------------------------------------------------------------------------|
Db|-7-0-0-8-0-0-5-0-0-7-0-0-1-0-1-0-7-0-0-8-0-0-5-0-0-7-0-0-1-0-1-0-----------|
Ab|---------------------------------------------------------------------------|
Db|---------------------------------------------------------------------------|

Eb|---------------------------------------------------------------------------|
Bb|---------------------------------------------------------------------------|
Gb|----------------------------------5-5-5-5----------------------------------|
Db|-7-0-0-8-0-0-5-0-0-7-0-0-1-0-1-0--5-5-5-5----------------------------------|
Ab|----------------------------------3-3-3-3----------------------------------|
Db|---------------------------------------------------------------------------|


Bridge Part 2:

Eb|---------------------------------------------------------------------------|
Bb|---------------------------------------------------------------------------|
Gb|---------------------------------------------------------------------------|
Db|---------------------------------------------------------------------------|
Ab|---------------------------------------------------------------------------|
Db|-7-0-0-8-0-0-5-0-0-7-0-0-1-0-1-0-7-0-0-8-0-0-5-0-0-7-0-0-1-0-1-0-----------|

Eb|---------------------------------------------------------------------------|
Bb|---------------------------------------------------------------------------|
Gb|----------------------------------5-5-5-5-5-5-5-5-5-5-5-5-5-5--------------|
Db|----------------------------------5-5-5-5-5-5-5-5-5-5-5-5-5-5--------------|
Ab|----------------------------------3-3-3-3-3-3-3-3-3-3-3-3-3-3--------------|
Db|-7-0-0-8-0-0-5-0-0-7-0-0-1-0-1-0-------------------------------------------|


Chorus:

Eb|---------------------------------------------------------------------------|
Bb|---------------------------------------------------------------------------|
Gb|-----------5-5-5-5-5/7--------5-5-5-5-5/7--------5-5-5-5-5-----------------|
Db|-0--0-7/3--5-5-5-5-5/7-0-7/3--5-5-5-5-5/7-0-7/3--5-5-5-5-5-----------------|
Ab|-0--0-7/3--3-3-3-3-3/5-0-7/3--3-3-3-3-3/5-0-7/3--3-3-3-3-3-----------------|
Db|-0--0-7/3--------------0-7/3--------------0-7/3----------------------------|

Eb|---------------------------------------------------------------------------|
Bb|---------------------------------------------------------------------------|
Gb|-7--------5-5-5-5-5-5--3-3-3-3-2-2-2-2-------------------------------------|
Db|-7-0-7/3--5-5-5-5-5-5--3-3-3-3-2-2-2-2-------------------------------------|
Ab|-5-0-7/3--3-3-3-3-3-3--1-1-1-1-0-0-0-0-------------------------------------|
Db|---0-7/3-------------------------------------------------------------------|


Outro:

Eb|---------------------------------------------------------------------------|
Bb|---------------------------------------------------------------------------|
Gb|---------------------------------------------------------------------------|
Db|---------------------------------------------------------------------------|
Ab|---------------------------------------------------------------------------|
Db|-12b-0-0-12b--0-12b--0-3h5-5-5-0--12b-0-0-12b--0-12b--0-3h5-5-5-0----------|

Eb|---------------------------------------------------------------------------|
Bb|--------------------------3------------------------------------------------|
Gb|--------------------------2------------------------------------------------|
Db|-----------------0--0--0--0------------12/---------------------------------|
Ab|-----------------0--0--0--0------------12/---------------------------------|
Db|-6--6-6-6-6-6-3--0--0--0--0------------12/---------------------------------|


************************************

| b  Bend
| h  Hammer-on
| p  Pull-off
| /  Slide up

************************************

Almost there ...

Sign in to get your own page with links to favourite songs and more. You are just one click away...

Login with Facebook Login with Google