Guitar Tabs Explorer
Ed Sheeran guitar tabs for Shape of you acoustic

Shape Of You Acoustic tab


Be the first to rate

Shape Of You Acoustic tab by Ed Sheeran

Intro

Print

Tuning: Standard (E chord diagramEE A chord diagramAA D chord diagramDD G chord diagramGG B chord diagramBB E chord diagramEE)

Difficulty: Novice

G#m chord diagramG#mG#m                                 C#m chord diagramC#mC#m
e|---------------------------x------|---------------------------x------|
B|---------------------------x------|---------------5-----------x------|
G|---------------4-----------x------|-----------6---------------x------|
D|-----------6---------------x------|-------6-------------------x------|
A|-------6-------------------x------|---4-----------------------x------|
E|---4-----------------------x------|---------------------------x------|
     1   e   &   a   2   e   &   a      1   e   &   a   2   e   &   a

     E chord diagramEE                                  F# chord diagramF#F#
e|---------------------------x------|---------------------------x------|
B|---------------------------x------|---------------------------x------|
G|---------------1-----------x------|---------------3-----------x------|
D|-----------2---------------x------|-----------4---------------x------|
A|-------2-------------------x------|-------4-------------------x------|
E|---0-----------------------x------|---2-----------------------x------|
     1   e   &   a   2   e   &   a      1   e   &   a   2   e   &   a


************************************

| x   Dead note

************************************

Other versions of Shape Of You Acoustic

- Shape of youChords
- Shape of you (Ver. 2)Chords
- Shape of you (Ver. 3)Chords
- Shape of you (Ver. 4)Chords
- Shape of you (Ver. 5)Chords
- Shape of you acousticChords
- Shape of youTabs
- Shape of you (Ver. 2) - introTabs
- Shape of you (Ver. 3)Tabs
- Shape of you acousticTabs

Comment this song and these intro

Do you have corrections, comments on the intro, thoughts about the song or a message to the author? Write them below.