Log in

One click and you are in

Login with Facebook Login with Google

Why sign up and log in

Guitar Tabs Explorer
Ed Sheeran guitar tabs for Photograph (Ver. 2)

Guitar tabs

E|---------------------------------------­-------------------------------------|
B|--------------5---4---5----------------­----------5---4---5------------------|
G|-----------------------------4---2---1-­------------------------4---2---1----|
D|-------2-------------------------------­-----2-------------------------------|
A|---------------------------------------­-------------------------------------|
E|---------------------------------------­-------------------------------------|

E|---------------------------------------­-------------------------------------|
B|--------------5---4---5----------------­----------5---4---5------------------|
G|-----------------------------4---------­------------------------4------------|
D|----------------------------------7---6­---------------------------7---6-----|
A|-------4-------------------------------­-------4-----------------------------|
E|---------------------------------------­-------------------------------------|


E|---------------------------------------­-------------------------------------|
B|--------------5---4---5----------------­----------5---4---5------------------|
G|-----------------------------4---2---1-­------------------------4---2---1----|
D|---------------------------------------­-------------------------------------|
A|-------2-------------------------------­----2--------------------------------|
E|---------------------------------------­-------------------------------------|


E|---------------------------------------­-------------------------------------|
B|--------------5---4---5----------------­-------------------------------------|
G|-----------------------------4---2---1-­------2------------------------------|
D|-------2-------------------------------­-------------------------------------|
A|---------------------------------------­-------------------------------------|
E|---------------------------------------­-------------------------------------|


Verse: A chord diagramE MajorE  A chord diagramC# minorC#m  A chord diagramBB  A chord diagramA majorA
E|---------------------------------------­-------------|
B|---------------------------------------­---(2)-------|
G|-----------1----------6---------4------­--2----------|
D|-----------2----------6---------4------­--2----------|
A|-----------2----------4---------2------­-------------|
E|---------------------------------------­-------------|


Pré-Refrão: A chord diagramC# minorC#m  A chord diagramA majorA  A chord diagramE MajorE  A chord diagramBB
E|---------------------------------------­---|
B|-----------5-------(2)-----------------­---|
G|-----------4--------2-------1-------4--­---|
D|-----------6--------2-------2-------4--­---|
A|-----------4-----------------2-------2-­---|
E|---------------------------------------­---|


Refrão: A chord diagramE MajorE  A chord diagramBB  A chord diagramC# minorC#m  A chord diagramA majorA
E|---------------------------------------­---|
B|-------------------------------(2)-----­---|
G|--------1-------4------6------2-----------|
D|--------2-------4------6------2-----------|
A|--------2-------2------4---------------­---|
E|---------------------------------------­---|

Other versions of Photograph

PhotographChords
Photograph (Ver. 2)Chords
Photograph acousticChords
Photograph liveChords
Photograph spanish version ukuleleChords
Photograph ukuleleChords
PhotographTabs
Photograph (Ver. 3)Tabs
Photograph - introTabs

Almost there ...

Sign in to get your own page with links to favourite songs and more. You are just one click away...

Login with Facebook Login with Google