Guitar Tabs Explorer
Ed Sheeran guitar tabs for Perfect

Perfect tab


4 / 5 [35 votes]

Perfect tab by Ed Sheeran

Guitar tabs

Print
3/4 time Signature

Verse 1:

e|--------------------------|-------------------------|-----------------------|-------------------------|
e|--------------------------|-------------------------|-----------------------|-------------------------|
G|-------5------------5-----|-------1-----------1-----|-----6---6-------6---6-|-----8---8-------8---8---|
D|-----6---6--------6---6---|-----3---3-------3---3---|---6-------6---6------6|---8-------8---8-------8-|
A|---6-------6----6-------6-|---3-------3---3-------3-|-4-----------4---------|-6-----------6-----------|
E|-4------------4-----------|-1-----------1-----------|-----------------------|-------------------------|

e|--------------------------|-------------------------|-----------------------|------------------------|
B|--------------------------|-------------------------|-------6-----------6---|------8------8----------|
G|-------5------------5-----|-------1-----------1-----|-----6---6-------6---6-|----8---8----8----------|
D|-----6---6--------6---6---|-----3---3-------3---3---|---6-------6---6------6|--8-------8--8----------|
A|---6-------6----6-------6-|---3-------3---3-------3-|-4-----------4---------|6------------6----------|
E|-4------------4-----------|-1-----------1-----------|-----------------------|------------------------|


Verse 2:

e|------------------------|------------------------|----------------------|------------------------|
B|------------------------|------------------------|------6-----------6---|------8-----------8-----|
G|------5------------5----|------1-----------1-----|----6---6-------6---6-|----8---8-------8---8---|
D|----6---6--------6---6--|----3---3-------3---3---|--6-------6---6------6|--8-------8---8-------8-|
A|--6-------6----6-------6|--3-------3---3-------3-|4-----------4---------|6-----------6-----------|
E|4------------4----------|1-----------1-----------|----------------------|------------------------|

e|------------------------|------------------------|----------------------|------------------------|
B|------------------------|------------------------|------6-----------6---|------8------8----------|
G|------5------------5----|------1-----------1-----|----6---6-------6---6-|----8---8----8----------|
D|----6---6--------6---6--|----3---3-------3---3---|--6-------6---6------6|--8-------8--8----------|
A|--6-------6----6-------6|--3-------3---3-------3-|4-----------4---------|6------------6----------|
E|4------------4----------|1-----------1-----------|----------------------|------------------------|


Chorus:

e|--------------------------|--------------------------|
B|--------------------6-----|--------------------8-----|
G|-------1----------6---6---|-------5----------8---8---|
D|-----3---3------6-------6-|-----6---6------8-------8-|  x4
A|---3-------3--4-----------|---6-------6--6-----------|
E|-1------------------------|-4------------------------|


Interlude:

e|---------------------|---------------------------|
B|---------------------|---------------------8-----|
D|-----8-----6------5--|-----3--------5------8-----|
D|---8-----6------5----|---3--------6---6----8-----|
A|-6-----4------3------|-1--------6-------6--6-----|
E|---------------------|--------4------------------|


Verse 3:

e|------------------------|------------------------|----------------------|------------------------|
B|------------------------|------------------------|------6-----------6---|------8-----------8-----|
G|------5------------5----|------1-----------1-----|----6---6-------6---6-|----8---8-------8---8---|
D|----6---6--------6---6--|----3---3-------3---3---|--6-------6---6------6|--8-------8---8-------8-|
A|--6-------6----6-------6|--3-------3---3-------3-|4-----------4---------|6-----------6-----------| x2
E|4------------4----------|1-----------1-----------|----------------------|------------------------|


Verse 4:

e|------------------------|------------------------|----------------------|------------------------|
B|------------------------|------------------------|------6-----------6---|------8-----------8-----|
G|------5------------5----|------1-----------1-----|----6---6-------6---6-|----8---8-------8---8---|
D|----6---6--------6---6--|----3---3-------3---3---|--6-------6---6------6|--8-------8---8-------8-|
A|--6-------6----6-------6|--3-------3---3-------3-|4-----------4---------|6-----------6-----------|
E|4------------4----------|1-----------1-----------|----------------------|------------------------|

e|------------------------|------------------------|----------------------|------------------------|
B|------------------------|------------------------|------6-----------6---|------8------8----------|
G|------5------------5----|------1-----------1-----|----6---6-------6---6-|----8---8----8----------|
D|----6---6--------6---6--|----3---3-------3---3---|--6-------6---6------6|--8-------8--8----------|
A|--6-------6----6-------6|--3-------3---3-------3-|4-----------4---------|6------------6----------|
E|4------------4----------|1-----------1-----------|----------------------|------------------------|


Chorus 2:

e|--------------------------|--------------------------|
B|--------------------6-----|--------------------8-----|
G|-------1----------6---6---|-------5----------8---8---|
D|-----3---3------6-------6-|-----6---6------8-------8-|  x4
A|---3-------3--4-----------|---6-------6--6-----------|
E|-1------------------------|-4------------------------|


Rhythm guitar for Guitar Solo Interlude:

e|------------------------|------------------------|----------------------|------------------------|
B|------------------------|------------------------|------6-----------6---|------8------8----------|
G|------5------------5----|------1-----------1-----|----6---6-------6---6-|----8---8----8----------|
D|----6---6--------6---6--|----3---3-------3---3---|--6-------6---6------6|--8-------8--8----------|
A|--6-------6----6-------6|--3-------3---3-------3-|4-----------4---------|6------------6----------|
E|4------------4----------|1-----------1-----------|----------------------|------------------------|


Chorus 3:

e|--------------------------|--------------------------|
B|--------------------6-----|--------------------8-----|
G|-------1----------6---6---|-------5----------8---8---|
D|-----3---3------6-------6-|-----6---6------8-------8-|  x4
A|---3-------3--4-----------|---6-------6--6-----------|
E|-1------------------------|-4------------------------|


Outro:

e|---------------------------|----------------------------4--|
B|---------------------------|--------------------8-------4--|
D|-----8-----6------5------3-|-------5----------8---8-----5--|
D|---8-----6------5------3---|-----6---6------8-------8---6--|
A|-6-----4------3------1-----|---6-------6--6-------------6--|
E|---------------------------|-4--------------------------4--|


************************************

| x   Dead note
| g   Grace note
| (n) Ghost note
| h   Hammer-on
| p   Pull-off
| r   Release
| >   Accented note
| t   Tapping
| b   Bend
| br  Bend release
| pb  Pre-bend
| pbr Pre-bend release
| /   Slide up
| \   Slide down
| ~   Vibrato
| s   Slap
| P   Pop
| PM  Palm mute
| TR  Trill
| N   Tremolo

Other versions of Perfect

- PerfectChords
- Perfect (Ver. 2)Chords
- Perfect (Ver. 3)Chords
- Perfect duetChords
- Perfect duet (Ver. 2)Chords
- Perfect duet acousticChords
- Perfect symphonyChords
- Perfect (Ver. 2)Tabs
- Perfect (Ver. 3)Tabs
- Perfect - soloTabs

Comment this song and these guitar tabs

Do you have corrections, comments on the guitar tabs, thoughts about the song or a message to the author? Write them below.