Guitar Tabs Explorer
Ed Sheeran bass tabs for Perfect

Perfect bass tab


5 / 5 [1 vote]

Perfect bass tab by Ed Sheeran

Bass tabs

Print
Bass comes in 0:34

Pre-Chorus:

G|----------------|-----------10\--|-------------|-------------|
D|----------------|----------------|-------------|-------------|
A|----------------|8----8--8-------|4----4--4----|--------6----|
E|4----4--4-------|----------------|-------------|4----4-------|

G|----------------|----------10\---|-------------|-------------|
D|-----------6----|----------------|-------------|-------------|
A|----------------|8----8-8--------|4---4--4--4-4|--6--6--6-6--|
E|4----4--4----6-4|----------------|-------------|-------------|


Chorus:

G|-----------------|--------------|--------------|--------------|
D|------10\--------|--------------|----10\-------|--------------|
A|8---8------4----4|--------6--6--|8-------4---6-|--------3-6---|
E|-----------------|4---4-6-------|--------------|4---4-6-------|

G|-----------------|--------------|--------------|--------------|
D|------10\--------|--------------|--------------|--------------|
A|8---8------4----4|--------3--6--|8---8--\4---6-|-------6------|
E|-----------------|4---4-6-------|--------------|4---4---------|

G|-----------------|--------------|--------------|--------------|
D|6--------5-------|3-------------|--------------|--------------|
A|-----------------|-------6------|4-------------|6-------------|
E|-----------------|--------------|--------------|--------------|

Verse:

G|------------------|-------------|--------------|----------4/6\4-|
D|------------------|-------------|--------------|---------------4|
A|------------------|8---8-8-----8|4----4-4------|6----6-6--------|
E|4---4--4-4--4-6-4-|--------6-8--|--------------|----------------|

G|------------------|-------------|--------------|----------------|
D|------------------|----10-------|--------------|----------------|
A|------------------|8-----8------|4--4---4-4-3-4|6----6----------|
E|4---4--4-4--4-6-4-|----------4-6|------4-------|----6-----------|


Pre-Chorus:

G|--------------|--------------|-----------|---------------|
D|--------------|--------------|-----------|---------------|
A|--------------|8---8-8------8|4---4-4---6|--------6---6--|
E|4---4-4--4-6-4|---------6-8--|-----------|4---4-6-------6|

G|--------------|--------------|-------------|-------------|
D|--------------|--------------|---------6--8|-------------|
A|--------------|8---8-8------8|4---4-4------|6---6---6----|
E|4---4-4--4-6-8|---------6-8--|-------------|-------6-----|

Chorus:

G|-----------------|--------------|--------------|--------------|
D|------10\--------|--------------|----10\-------|--------------|
A|8---8------4----4|--------6--6--|8-------4---6-|--------3-6---|
E|-----------------|4---4-6-------|--------------|4---4-6-------|

G|-----------------|--------------|--------------|--------------|
D|------10\--------|--------------|--------------|--------------|
A|8---8------4----4|--------3--6--|8---8--\4---6-|-------6------|
E|-----------------|4---4-6-------|--------------|4---4---------|

Break:

G|--------------|-------------|---------------|--------------|
D|--------------|-------------|---------------|--------------|
A|--------------|8---8-8------|4--4-4-4--4-6-8|6-----6-------|
E|4---4-4--4-6-4|---------6-8-|---------------|----6---------|

Chorus:

G|-----------------|--------------|--------------|--------------|
D|------10\--------|--------------|----10\-------|--------------|
A|8---8------4----4|--------6--6--|8-------4---6-|--------3-6---|
E|-----------------|4---4-6-------|--------------|4---4-6-------|

G|-----------------|--------------|--------------|--------------|
D|------10\--------|--------------|--------------|--------------|
A|8---8------4----4|--------3--6--|8---8--\4---6-|-------6------|
E|-----------------|4---4-6-------|--------------|4---4---------|


G|-----------------|--------------|--------------|--------------|
D|-----------------|--------------|--------------|--------------|
A|-------X---------|-----X--------|-----X--------|-------X------|
E|-----------------|--------------|--------------|--------------|

G|-----------------|--------------|--------------|--------------|
D|6--------5-------|3-------------|--------------|--------------|
A|-----------------|-------6------|4-------------|6-------------|
E|-----------------|--------------|--------------|--------------|


************************************

| /   Slide up
| \   Slide down

Comment this song and these bass tabs

Do you have corrections, comments on the bass tabs, thoughts about the song or a message to the author? Write them below.