Search tabs and chords

Search for song, artist or band

Log in

One click and you are in

Login with Facebook Login with Google

Why sign up and log in

Guitar Tabs Explorer
Ed Sheeran guitar tabs for I dont care

Guitar tabs

  • Capo on 6th
Capo on 6

this works for the whole song

     C chord diagramCC
e|-----0--0-----0--0----0--0------------|
B|-----1--1-----1--1----1--1----3-3/5---|
G|-----0--0-----0--0----0--0------------|
D|-----2--2-----2--2----2--2------------|
A|---3--------3-------3-------3---------|
E|--------------------------------------|

     Am chord diagramAmAm
e|-----0--0-----0--0----0--0------------|
B|-----1--1-----1--1----1--1----3-3/5---|
G|-----0--0-----0--0----0--0------------|
D|-----2--2-----2--2----2--2------------|
A|---0--------0-------0-------0---------|
E|--------------------------------------|

     Fmaj7sus2        G chord diagramGG
e|-----0--0-----0--0----3--3----3--3----|
B|-----1--1-----1--1----3--3----3--3----|
G|-----0--0-----0--0----0--0----0--0----|
D|-----3--3-----3--3----0--0----0--0----|
A|--------------------------------------|
E|---1--------1-------3-------3---------|

     C chord diagramCC
e|-----0--0-----0--0----0--0----0--0----|
B|-----1--1-----1--1----1--1----1--1----|
G|-----0--0-----0--0----0--0----0--0----|
D|-----2--2-----2--2----2--2----2--2----|
A|---3--------3-------3-------3---------|
E|--------------------------------------|

Other versions of I Don't Care

I don't careChords
I don't care (Ver. 2)Chords
I don't care (Ver. 3)Chords

Almost there ...

Sign in to get your own page with links to favourite songs and more. You are just one click away...

Login with Facebook Login with Google