Log in

One click and you are in

Login with Facebook Login with Google

Why sign up and log in

Guitar Tabs Explorer
Ed Sheeran guitar tabs for I dont care acoustic

Guitar tabs

Tuning: Half-Step Down (A chord diagramD#D# A chord diagramG#G# A chord diagramC#C# A chord diagramF#F# A chord diagramA#A# A chord diagramD#D#)

Key: A chord diagramGbGb

Difficulty: Novice

Ed Sheeran - I Don’t Care (Acoustic) Guitar Tab

Main Riff: Repeats through full song

    A chord diagramG MajorG
Eb|---------------------------------|---------------------------------|
Bb|-------3-----3---------3-----3---|-------3-----3---------3-----3---|
Gb|-------0-----0---------0-----0---|-------0-----0---------0-----0---|
Db|---------------------------------|---------------------------------|
Ab|---------------------------------|---------------------------------|
Eb|-3---------------3---------------|-3---------------3---------------|
    1 e + a 2 e + a 3 e + a 4 e + a   1 e + a 2 e + a 3 e + a 4 e + a

    A chord diagramE minor 7Em7
Eb|---------------------------------|---------------------------------|
Bb|-------3-----3---------3-----3---|-------3-----3---------3-----3---|
Gb|-------0-----0---------0-----0---|-------0-----0---------0-----0---|
Db|---------------------------------|---------------------------------|
Ab|---------------------------------|---------------------------------|
Eb|-0---------------0---------------|-0---------------0---------------|
    1 e + a 2 e + a 3 e + a 4 e + a   1 e + a 2 e + a 3 e + a 4 e + a

    A chord diagramCsus2Csus2                             A chord diagramD MajorD
Eb|---------------------------------|---------------------------------|
Bb|-------3-----3---------3-----3---|-------3-----3---------3-----3---|
Gb|-------0-----0---------0-----0---|-------2-----2---------2-----2---|
Db|---------------------------------|-0---------------0---------------|
Ab|-3---------------3---------------|---------------------------------|
Eb|---------------------------------|---------------------------------|
    1 e + a 2 e + a 3 e + a 4 e + a   1 e + a 2 e + a 3 e + a 4 e + a

    A chord diagramG MajorG
Eb|---------------------------------|---------------------------------|
Bb|-------3-----3---------3-----3---|-------3-----3---------3-----3---|
Gb|-------0-----0---------0-----0---|-------0-----0---------0-----0---|
Db|---------------------------------|---------------------------------|
Ab|---------------------------------|---------------------------------|
Eb|-3---------------3---------------|-3---------------3---------------|
    1 e + a 2 e + a 3 e + a 4 e + a   1 e + a 2 e + a 3 e + a 4 e + a

Other versions of I Don't Care Acoustic

I don't careChords
I don't care (Ver. 2)Chords
I don't care (Ver. 3)Chords
I don't care (feat justin bieber)Chords
I don't care acousticChords
I don't careTabs

↓ Add and view comments below ↓

What do you think about this song and these tabs?

Add your comments, questions, rant or a thumbs up below.

Almost there ...

Sign in to get your own page with links to favourite songs and more. You are just one click away...

Login with Facebook Login with Google