Log in

One click and you are in

Login with Facebook Login with Google

Why sign up and log in

Guitar Tabs Explorer
Ed Sheeran bass tabs for Castle on the hill

Bass tabs

Verse:

G|-7-7-7------------------------------6-7------------------------------------|
D|--------4-5-5-5-x-5--9-9-x-9-7-7-7-----------------------------------------|
A|---------------------------------------------------------------------------|
E|---------------------------------------------------------------------------|

G|-7-7-7------------------------------6-7------------------------------------|
D|--------4-5-5-5-x-5--9-9-x-9-7-7-7-----------------------------------------|
A|---------------------------------------------------------------------------|
E|---------------------------------------------------------------------------|

Tasted the sweet perfume...
G|---------------------------------------------------------------------------|
D|---------------------------------------------------------------------------|
A|-5-5-5------------------------------4-5------------------------------------|
E|--------2-3-3-3-x-3--7-7-x-7-5-5-5-----------------------------------------|

G|---------------------------------------------------------------------------|
D|---------------------------------------------------------------------------|
A|-5-5-5------------------------------4-5------------------------------------|
E|--------2-3-3-3-x-3--7-7-x-7-5-5-5-----------------------------------------|


Pre-Chorus:

G|---------------------------------------------------------------------------|
D|---------------------------------------------------------------------------|
A|--------------------------4-5--5-5--5-5------------------------------------|
E|-3--3-3--3-3--5--5-5--5-5---------------5-3--3-3--3-3----------------------|

G|---------------------------------------------------------------------------|
D|---------------------------------------------------------------------------|
A|--------------------------4-5--5-5--5-5------------------------------------|
E|-3--3-3--3-3--5--5-5--5-5---------------5-3--3-3--3-3----------------------|

G|---------------------------------------------------------------------------|
D|---------------------------------------------------------------------------|
A|---------------------------------------------------------------------------|
E|-3--3-3--3-3--5------------------------------------------------------------|


Chorus:

G|---------------------------------------------------------------------------|
D|---------------------------------------------------------------------------|
A|-5-5-5---------------------------------4-5---------------------------------| x4
E|-------2-3-3-3-3-x-3-7-7-7-x-7-5-5-5-5-------------------------------------|


Verse:

G|-7-7-7------------------------------6-7------------------------------------|
D|--------4-5-5-5-x-5--9-9-x-9-7-7-7-----------------------------------------|
A|---------------------------------------------------------------------------|
E|---------------------------------------------------------------------------|

G|-7-7-7------------------------------6-7------------------------------------|
D|--------4-5-5-5-x-5--9-9-x-9-7-7-7-----------------------------------------|
A|---------------------------------------------------------------------------|
E|---------------------------------------------------------------------------|

Had my first kiss...
G|---------------------------------------------------------------------------|
D|---------------------------------------------------------------------------|
A|-5-5-5------------------------------4-5------------------------------------|
E|--------2-3-3-3-x-3--7-7-x-7-5-5-5-----------------------------------------|


G|---------------------------------------------------------------------------|
D|---------------------------------------------------------------------------|
A|-5-5-5------------------------------4-5------------------------------------|
E|--------2-3-3-3-x-3--7-7-x-7-5-5-5-----------------------------------------|


Pre-Chorus:

G|---------------------------------------------------------------------------|
D|---------------------------------------------------------------------------|
A|--------------------------4-5--5-5--5-5------------------------------------|
E|-3--3-3--3-3--5--5-5--5-5---------------5-3--3-3--3-3----------------------|

G|---------------------------------------------------------------------------|
D|---------------------------------------------------------------------------|
A|--------------------------4-5--5-5--5-5------------------------------------|
E|-3--3-3--3-3--5--5-5--5-5---------------5-3--3-3--3-3----------------------|

G|---------------------------------------------------------------------------|
D|---------------------------------------------------------------------------|
A|---------------------------------------------------------------------------|
E|-3--3-3--3-3--5------------------------------------------------------------|


Chorus:

G|---------------------------------------------------------------------------|
D|---------------------------------------------------------------------------|
A|-5-5-5---------------------------------4-5---------------------------------| x6
E|-------2-3-3-3-3-x-3-7-7-7-x-7-5-5-5-5-------------------------------------|


Bridge:

Over the castle on the hill...
G|---------------------------------------------------------------------------|
D|---------------------------------------------------------------------------|
A|------------------------------2---------------5----------------------------|
E|--------------------------------------3---------------5--------------------|

One friend...................the coast
G|---------------------------------------------------------------------------|
D|---------------------------------------------------------------------------|
A|-2--2-2-------------5--5-5-------------------------------------------------|
E|--------2-3--3-3--5--------7-5--5-5----------------------------------------|

G|---------------------------------------------------------------------------|
D|---------------------------------------------------------------------------|
A|-0-2--2-2-------------5--5-5-----------------------------------------------| x3
E|----------2-3--3-3--5--------7-5--5-5--------------------------------------|


Chorus:

And I miss...
G|---------------------------------------------------------------------------|
D|---------------------------------------------------------------------------|
A|-5-5-5---------------------------------4-5---------------------------------| x4
E|-------2-3-3-3-3-x-3-7-7-7-x-7-5-5-5-5-------------------------------------|


************************************

| x  Dead note

Other versions of Castle On The Hill

Castle on The Hill (Ver. 2)Bass tabs

Almost there ...

Sign in to get your own page with links to favourite songs and more. You are just one click away...

Login with Facebook Login with Google