Log in

One click and you are in

Login with Facebook Login with Google

Why sign up and log in

Guitar Tabs Explorer
Ed Sheeran bass tabs for Castle on the hill (Ver. 2)

Castle On The Hill bass tab by Ed Sheeran (Ver. 2)

Ed Sheeran bass tabs for Castle on the hill (Ver. 2)

Bass tabs

Verse:
G|-------------------------------------|
D|-12-12---4-5-5---5-9-9---9-7-7---11--|
A|-------------------------------------| x4
E|-------------------------------------|
Pre-Chorus:
REST (as far as I can tell, no bass in this section—If someone knows, feel free to add)


Chorus:
G|-------------------------------------|
D|-12-12---4-5-5---5-9-9---9-7-7---11--|
A|-------------------------------------| x4
E|-------------------------------------|


Verse:
G|-------------------------------------|
D|-12-12---4-5-5---5-9-9---9-7-7---11--|
A|-------------------------------------| x4
E|-------------------------------------|


Pre-Chorus:
REST


Chorus:
G|-------------------------------------|
D|-12-12---4-5-5---5-9-9---9-7-7---11--|
A|-------------------------------------| x6
E|-------------------------------------|


Bridge:
G|-------------------------------------|
D|-------------------------------------|
A|-------------------------------------| x4
E|-10------2-3-----3-7------7-5----9---|


Pre-Chorus:
REST


Chorus:
G|-------------------------------------|
D|-12-12---4-5-5---5-9-9---9-7-7---11--|
A|-------------------------------------| x6
E|-------------------------------------|

Other versions of Castle On The Hill

Castle on The HillBass tabs

Almost there ...

Sign in to get your own page with links to favourite songs and more. You are just one click away...

Login with Facebook Login with Google