Log in

One click and you are in

Login with Facebook Login with Google

Why sign up and log in

Guitar Tabs Explorer
Ed Sheeran bass tabs for Blow

Bass tabs

Tuning: Half-Step Down (D# G# C# F#)

Key: Ebm

Difficulty: Intermediate
Intro:

Gb|--------------------------------|--------------------------------|
Db|--------------------------------|--------------------------------|
Ab|--------------------------------|--------------------------------|
Eb|--------------------------------|--------------------------------|

Gb|--------------------------------|--------------------------------|
Db|--------------------------------|--------------------------------|
Ab|--------------------------------|----------------------5---------|
Eb|--------------------------------|----------------5-6-7---7-6-5-3-|

Gb|--------------------------------|--------------------------------|
Db|--------------------------------|--------------------------------|
Ab|-----5h7------------------------|-----5h7--------------5---------|
Eb|0--0-----------0--0-5p3---------|0--0------------5-6-7---7-6-5-3-| x2


Verse 1:

Gb|--------------------------------|--------------------------------|
Db|--------------------------------|--------------------------------|
Ab|-----5h7------------------------|-----5h7--------------5---------|
Eb|0--0-----------0--0-5p3---------|0--0------------5-6-7---7-6-5-3-| x3

Gb|--------------------------------|--------------------------------|
Db|--------------------------------|--------------------------------|
Ab|-----5h7------------------------|----------------------5---------|
Eb|0--0-----------0--0-5p3---------|----------------5-6-7---7-6-5-3-|

Interlude:

Gb|--------------------------------|--------------------------------|
Db|--------------------------------|--------------------------------|
Ab|-----5h7------------------------|-----5h7--------------5---------|
Eb|0--0-----------0--0-5p3---------|0--0------------5-6-7---7-6-5-3-| x2


Verse 2:

Gb|--------------------------------|--------------------------------|
Db|--------------------------------|--------------------------------|
Ab|-----5h7------------------------|-----5h7--------------5---------|
Eb|0--0-----------0--0-5p3---------|0--0------------5-6-7---7-6-5-3-| x3

Gb|--------------------------------|--------------------------------|
Db|--------------------------------|--------------------------------|
Ab|-----5h7------------------------|----------------------5---------|
Eb|0--0-----------0--0-5p3---------|----------------5-6-7---7-6-5-3-|


Chorus:

Gb|--------------------------------|--------------------------------|
Db|--------------------------------|--------------------------------|
Ab|--------------------------------|--------------------------------|
Eb|3---3---3---3---3---3---3---3---|5---5---5---5---5---5---5---5---|

Gb|--------------------------------|--------------------------------|
Db|--------------------------------|--------------------------------|
Ab|-----5h7------------------------|-----5h7--------------5---------|
Eb|0--0-----------0--0-5p3---------|0--0------------5-6-7---7-6-5-3-|

Gb|--------------------------------|--------------------------------|
Db|--------------------------------|--------------------------------|
Ab|--------------------------------|--------------------------------|
Eb|3---3---3---3---3---3---3---3---|5---5---5---5---5---5---5---5---|

Gb|--------------------------------|--------------------------------|
Db|--------------------------------|--------------------------------|
Ab|--------------------------------|---------------/5---------------|
Eb|0*------------------------------|------------------------5-------|


Interlude:

Gb|--------------------------------|--------------------------------|
Db|--------------------------------|--------------------------------|
Ab|-----5h7------------------------|-----5h7--------------5---------|
Eb|0--0-----------0--0-5p3---------|0--0------------5-6-7---7-6-5-3-| x2


Verse 3:

Gb|--------------------------------|--------------------------------|
Db|--------------------------------|--------------------------------|
Ab|-----5h7------------------------|-----5h7--------------5---------|
Eb|0--0-----------0--0-5p3---------|0--0------------5-6-7---7-6-5-3-| x3

Gb|--------------------------------|--------------------------------|
Db|--------------------------------|--------------------------------|
Ab|-----5h7------------------------|----------------------5---------|
Eb|0--0-----------0--0-5p3---------|----------------5-6-7---7-6-5-3-|


Chorus:

Gb|--------------------------------|--------------------------------|
Db|--------------------------------|--------------------------------|
Ab|--------------------------------|--------------------------------|
Eb|3---3---3---3---3---3---3---3---|5---5---5---5---5---5---5---5---|

Gb|--------------------------------|--------------------------------|
Db|--------------------------------|--------------------------------|
Ab|-----5h7------------------------|-----5h7--------------5---------|
Eb|0--0-----------0--0-5p3---------|0--0------------5-6-7---7-6-5-3-|

Gb|--------------------------------|--------------------------------|
Db|--------------------------------|--------------------------------|
Ab|--------------------------------|--------------------------------|
Eb|3---3---3---3---3---3---3---3---|5---5---5---5---5---5---5---5---|

Gb|--------------------------------|--------------------------------|
Db|--------------------------------|--------------------------------|
Ab|--------------------------------|---------------/5---------------|
Eb|0*------------------------------|------------------------5-------|


Solo:

Gb|--------------------------------|--------------------------------|
Db|--------------------------------|--------------------------------|
Ab|--------------------------------|--------------------------------|
Eb|0--0*---------------------------|0--0*-----------3-------5-------|

Gb|--------------------------------|--------------------------------|
Db|--------------------------------|--------------------------------|
Ab|--------------------------------|--------------------------------|
Eb|0--0*---------------------------|0-------3-------3-------5-------|

Gb|--------------------------------|--------------------------------|
Db|--------------------------------|--------------------------------|
Ab|-----5h7------------------------|-----5h7--------------5---------|
Eb|0--0-----------0--0-5p3---------|0--0------------5-6-7---7-6-5-3-|

Gb|--------------------------------|--------------------------------|
Db|--------------------------------|--------------------------------|
Ab|-----5h7------------------------|-----5h7--------------5---------|
Eb|0--0-----------0--0-5p3---------|0--0------------5-6-7---7-6-5-3-|


Chorus:

Gb|--------------------------------|--------------------------------|
Db|--------------------------------|--------------------------------|
Ab|--------------------------------|--------------------------------|
Eb|3---3---3---3---3---3---3---3---|5---5---5---5---5---5---5---5---|

Gb|--------------------------------|--------------------------------|
Db|--------------------------------|--------------------------------|
Ab|-----5h7------------------------|-----5h7--------------5---------|
Eb|0--0-----------0--0-5p3---------|0--0------------5-6-7---7-6-5-3-|

Gb|--------------------------------|--------------------------------|
Db|--------------------------------|--------------------------------|
Ab|--------------------------------|--------------------------------|
Eb|3---3---3---3---3---3---3---3---|5---5---5---5---5---5---5---5---|

Gb|--------------------------------|--------------------------------|
Db|--------------------------------|--------------------------------|
Ab|--------------------------------|---------------/5---------------|
Eb|0*------------------------------|------------------------5-------|


Outro:

Gb|--------------------------------|--------------------------------|
Db|--------------------------------|--------------------------------|
Ab|-----5h7------------------------|-----5h7--------------5---------|
Eb|0--0-----------0--0-5p3---------|0--0------------5-6-7---7-6-5-3-|

Gb|--------------------------------|--------------------------------|
Db|--------------------------------|--------------------------------|
Ab|-----5h7------------------------|-----5h7--------------5---------|
Eb|0--0-----------0--0-5p3---------|0--0------------5-6-7---7-6-5-3-|

Gb|--------------------------------|
Db|--------------------------------|
Ab|------5---------------5---------|
Eb|5-6-7---7-6-5-3-5-6-7---7-6-5-3-|


************************************

| *  Dead note
| h  Hammer-on
| p  Pull-off
| /  Slide up
| \  Slide down

************************************

Almost there ...

Sign in to get your own page with links to favourite songs and more. You are just one click away...

Login with Facebook Login with Google