Log in

One click and you are in

Login with Facebook Login with Google

Why sign up and log in

Guitar Tabs Explorer
Ed Sheeran guitar tabs for Bloodstream intro

Guitar tabs

Tuning: A chord diagramE MajorE A chord diagramA augmentedA A chord diagramD MajorD A chord diagramE MajorE A chord diagramBB A chord diagramE MajorE
Capo: 4th

A chord diagramE MajorE |----------------------------------------------------|
A chord diagramBB |----------------------------------------------------|
A chord diagramE MajorE |--------0--------0--------------0--------0----------|
A chord diagramD MajorD |-----4--------4--------4-----4--------4--------4----|
A chord diagramA augmentedA |--2--------2--------2-----2--------2--------2-------|
A chord diagramE MajorE |----------------------------------------------------|
----------------------------------------------------|
----------------------------------------------------|
--------0--------0--------------0--------0----------|
-----0--------0--------0-----0--------0--------0----|
----------------------------------------------------|
--3--------3--------3-----3--------3--------3-------|


----------------------------------------------------|
----------------------------------------------------|
--------0--------0--------------0--------0----------|
-----2--------2--------2-----2--------2--------2----|
--0--------0--------0-----0--------0--------0-------|
----------------------------------------------------|


----------------------------------------------------||
----------------------------------------------------||
--------0--------0--------------0--------0----------||
-----0--------0--------0-----0--------0--------0----||
----------------------------------------------------||

Other versions of Bloodstream Intro

BloodstreamChords
Bloodstream (Ver. 2)Chords
Bloodstream - rudimentalChords
Bloodstream ukuleleChords
BloodstreamTabs
Bloodstream (Ver. 2)Tabs

Almost there ...

Sign in to get your own page with links to favourite songs and more. You are just one click away...

Login with Facebook Login with Google