Log in

One click and you are in

Login with Facebook Login with Google

Why sign up and log in

Guitar Tabs Explorer
Ed Sheeran bass tabs for Best part of me

Bass tabs

Intro:

Rest for 4 bars:

G|----------|----------|----------|----------|
D|----------|----------|----------|----------|
A|----------|----------|----------|----------|
E|----------|----------|----------|----------|

Verse 1:

Rest for 8 bars then:

G|-----------|------------|
D|-0---------|------------|
A|-----------|-2----------|
E|------0----|------3-----| x3

G|-----------|-------------|
D|-0---------|-----------0-|
A|-----------|-2-----------|
E|------0----|-------3-----|


Pre-Chorus:

G|-0---2--------|-----------|------------|-----------|
D|--------0---2-|-----------|--------0---|-----2-----|
A|--------------|-0---2--0--|-----0------|-0------0--|
E|--------------|-----------|-3----------|-----------|

G|------------|------------|------------|-----------|
D|-----0---2--|------------|--------0---|-----------|
A|------------|-0---2---0--|-----0------|-0---------|
E|-3----------|------------|-3----------|-----------|


Chorus:

G|-----------------|-----------------|-----------------|----------0----------|
D|-0---0-----------|-----------------|-0---0-----------|--------0----0-------|
A|---------0---0---|---------2---0---|---------0---0---|-----------------0---|
E|-----------------|-3---3-----------|-----------------|-3---3---------3-----|

G|-----------------|------------------|-----------------|-------------|
D|-0---0-----------|------------------|-0---0-----------|-------------|
A|---------0---0---|--------0-2---0---|---------0---0---|-----2---0---|
E|-----------------|-3---3------------|-----------------|-3-----------|


Interlude:

G|-----------|------------|
D|-0---------|------------|
A|-----------|-2----------|
E|------0----|------3-----| x2


Verse 2:

G|-----------|------------|
D|-0---------|------------|
A|-----------|-2----------|
E|------0----|------3-----| x3

G|-----------|-----0-0---|
D|-0---------|-----------|
A|-----------|-2---------|
E|------0----|-----------|



Pre-Chorus:

G|-----------------|-----------------|-----------------|-----------------|
D|---------0-0-0-0-|-----------------|---------0-0-0-0-|-----------------|
A|-----------------|-0-0-0-0-2-2-2-2-|-----------------|-0-0-0-0-0-0-0-0-|
E|-3-3-3-3---------|-----------------|-3-3-3-3---------|-----------------|

G|-----------------|-----------------|-----------------|-------------2-------|
D|---------0-0-0-0-|-----------------|---------0-0-0-0-|-----------2---2---2-|
A|-----------------|-0-0-0-0-2-2-2-2-|-----------------|-0-0-0-0-0-------0---|
E|-3-3-3-3---------|-----------------|-3-3-3-3---------|---------------------|


Chorus:

G|------------------|----------------|-----------------|---------------------|
D|-0--0-------------|----------------|-0--0------------|---------------------|
A|------------------|--------2--0--0-|-------0--0------|---------------------|
E|-------0-5--5-0---|-3--3-3---------|-------------0---|-3--3--3-3--3--3--3--|

G|------------------|--------------|--------------|-----------|
D|-0--0-------------|--------------|-0--0---------|-----------|
A|------------------|--------2--0--|-------0--0---|----2--0---|
E|-------0-5--5-0---|-3--3---------|--------------|-3---------|


Solo:

G|--------------------|----------------------|-----------------|------------0---0-0-2---|
D|-0---0--------------|----------------------|-0---0-----------|----------0---0---------|
A|---------0---0--0---|-2---2----------------|-----------------|------------------------|
E|--------------------|---------0-3---3--3---|---------5---5-0-|-3---3--3---------------|


Chorus:

G|-----------------|-----------------|
D|-0-0-0-0---------|-----------------|
A|---------0-0-0-0-|---------2-2-0-0-|
E|-----------------|-3-3-3-3---------| x4


Outro:

G|-------------2-----|------------------|-----------------|-------------|
D|-0-0-0-0-------2---|------------------|-0-0-0-0---------|-------------|
A|---------0-0-----0-|----------2-2-0-0-|---------0-0-0-0-|-----2---0---|
E|-------------------|-3-3-3-3----------|-----------------|-3-----------|

G|----------|
D|-0--------|
A|----------|
E|----------|

Almost there ...

Sign in to get your own page with links to favourite songs and more. You are just one click away...

Login with Facebook Login with Google