Log in

One click and you are in

Login with Facebook Login with Google

Why sign up and log in

Guitar Tabs Explorer
Ed Sheeran bass tabs for Antisocial

Bass tabs

Tuning: Half-Step Down (Eb Ab Db Gb)

Key: Bbm

Difficulty: Novice
Intro (0:05):

  1 e + a 2 e + a 3 e + a 4 e + a 1 e + a 2 e + a 3 e + a 4 e + a
Gb|----r-----------r---------------|----r-----------r---------------|
Db|----e-----------e---------------|----e-----------e---------------| play
Ab|2-2-s-----------s---------------|----s-----------s---------------| x2
Eb|----t-------2-2-t---2-2---2-----|0-0-t-------0-0-t---2-2---2-----|


Verse 1 (0:17):

  1 e + a 2 e + a 3 e + a 4 e + a 1 e + a 2 e + a 3 e + a 4 e + a
Gb|4-4-r-----------r-------r-------|----r-----------r---------------|
Db|----e-------4-4-e-------e-------|----e-----------e---------------| play
Ab|----s-----------s-------s-------|----s-----------s---------------| x1
Eb|----t-----------t-------t-------|0-0-t-------0-0-t---2-2---2-----|

  1 e + a 2 e + a 3 e + a 4 e + a 1 e + a 2 e + a 3 e + a 4 e + a
Gb|----r-----------r---------------|----r-----------r-------r-------|
Db|----e-----------e---------------|----e-----------e-------e-------| play
Ab|2-2-s-----------s---------------|----s-----------s-------s-------| x1
Eb|----t-------2-2-t---2-2---2-----|0-0-t-------0-0-t---2-2-t-------|

  1 e + a 2 e + a 3 e + a 4 e + a 1 e + a 2 e + a 3 e + a 4 e + a
Gb|----r-----------r---------------|----r-----------r---------------|
Db|----e-----------e---------------|----e-----------e---------------| play
Ab|2-2-s-----------s---------------|----s-----------s---------------| x2
Eb|----t-------2-2-t---2-2---2-----|0-0-t-------0-0-t---2-2---2-----|


Pre-Chorus (0:43):

  1 e + a 2 e + a 3 e + a 4 e + a 1 e + a 2 e + a 3 e + a 4 e + a
Gb|--------------------------------|--------------------------------|
Db|9-9-9-9-9-9-9-9-9-9-------------|----------------------------7-7-| play
Ab|--------------------9-9-9-9-9-9-|7-7-7-7-7-7-7-7-7-7-9-9-9-9-----| x1
Eb|--------------------------------|--------------------------------|

  1 e + a 2 e + a 3 e + a 4 e + a 1 e + a 2 e + a 3 e + a 4 e + a
Gb|--------------------------------|----------------r-------r-------|
Db|9-9-9-9-9-9-9-9-9-9-------------|----------------e-------e-------| play
Ab|--------------------9-9-9-9-9-9-|7-7-7-7-7-7-7-7-s-------s-------| x1
Eb|--------------------------------|----------------t-------t-------|


Chorus (0:56):

  1 e + a 2 e + a 3 e + a 4 e + a 1 e + a 2 e + a 3 e + a 4 e + a
Gb|----r-----------r---------------|----r-----------r---------------|
Db|----e-----------e---------------|----e-----------e---------------| play
Ab|2-2-s-----------s---------------|----s-----------s---------------| x4
Eb|----t-------2-2-t---2-2---2-----|0-0-t-------0-0-t---2-2---2-----|

  1 2 3 4
Gb|r-------|
Db|--e-----| play
Ab|----s---| x1
Eb|------t-|


Verse 2 (1:24):

  1 e + a 2 e + a 3 e + a 4 e + a 1 e + a 2 e + a 3 e + a 4 e + a
Gb|----r-----------r---------------|----r-----------r---------------|
Db|----e-----------e---------------|----e-----------e---------------| play
Ab|2-2-s-----------s---------------|----s-----------s---------------| x1
Eb|----t-------2-2-t---2-2---2-----|0-0-t-------0-0-t---2-2---2-----|

  1 e + a 2 e + a 3 e + a 4 e + a 1 e + a 2 e + a 3 e + a 4 e + a
Gb|----r-----------r---------------|----r-----------r-------r-------|
Db|----e-----------e---------------|----e-----------e-------e-------| play
Ab|2-2-s-----------s---------------|----s-----------s-------s-------| x1
Eb|----t-------2-2-t---2-2---2-----|0-0-t-------0-0-t-------t-------|

  1 e + a 2 e + a 3 e + a 4 e + a 1 e + a 2 e + a 3 e + a 4 e + a
Gb|----r-----------r---------------|----r-----------r---------------|
Db|----e-----------e---------------|----e-----------e---------------| play
Ab|2-2-s-----------s---------------|----s-----------s---------------| x2
Eb|----t-------2-2-t---2-2---2-----|0-0-t-------0-0-t---2-2---2-----|


Pre-Chorus (1:49):

  1 e + a 2 e + a 3 e + a 4 e + a 1 e + a 2 e + a 3 e + a 4 e + a
Gb|--------------------------------|--------------------------------|
Db|9-9-9-9-9-9-9-9-9-9-------------|----------------------------7-7-| play
Ab|--------------------9-9-9-9-9-9-|7-7-7-7-7-7-7-7-7-7-9-9-9-9-----| x1
Eb|--------------------------------|--------------------------------|

  1 e + a 2 e + a 3 e + a 4 e + a 1 e + a 2 e + a 3 e + a 4 e + a
Gb|--------------------------------|----------------r-------r-------|
Db|9-9-9-9-9-9-9-9-9-9-------------|----------------e-------e-------| play
Ab|--------------------9-9-9-9-9-9-|7-7-7-7-7-7-7-7-s-------s-------| x1
Eb|--------------------------------|----------------t-------t-------|


Chorus (2:02):

  1 e + a 2 e + a 3 e + a 4 e + a 1 e + a 2 e + a 3 e + a 4 e + a
Gb|----r-----------r---------------|----r-----------r---------------|
Db|----e-----------e---------------|----e-----------e---------------| play
Ab|2-2-s-----------s---------------|----s-----------s---------------| x4
Eb|----t-------2-2-t---2-2---2-----|0-0-t-------0-0-t---2-2---2-----|


Outro (2:27):

  1 + 2 + 3 + 4 + 1 + 2 + 3 + 4 + 1 + 2 + 3 + 4 + 1 + 2 + 3 + 4 +
Gb|----------------|----------------|----------------|--------r---r---|
Db|9---------------|--------------7-|9---------------|--------e---e---| play
Ab|----------9-----|7---------9-----|----------9-----|7---\---s---s---| x1
Eb|----------------|----------------|----------------|--------t---t---|


***Legend*************
* rest = don't play *
* \ = slide down  *
*******************

Almost there ...

Sign in to get your own page with links to favourite songs and more. You are just one click away...

Login with Facebook Login with Google