Log in

One click and you are in

Login with Facebook Login with Google

Why sign up and log in

Guitar Tabs Explorer
Ed Sheeran bass tabs for Afterglow

Bass tabs

Tuning: Standard (E A D G)

Theres not bass for this song but heres an option for playing along with the song.
Intro:

Rest


Verse 1:

G|---------|---------|---------|---------|
D|---------|---------|---------|---------|
A|-2---2-2-|-2---2-2-|---------|---------|
E|---------|---------|-0---0-0-|-0---0-0-|

G|---------|---------|---------|---------|
D|---------|---------|---------|---------|
A|---------|---------|---------|---------|
E|-2---2-2-|-4---4-4-|-0---0-0-|-0---0-0-|

G|---------|---------|---------|---------|
D|---------|---------|---------|---------|
A|-2---2-2-|-2---2-2-|---------|---------|
E|---------|---------|-0---0-0-|-0---0-0-|

G|---------|---------|---------|---------|
D|---------|---------|---------|---------|
A|---------|---------|---------|---------|
E|-2---2-2-|-4---4-4-|-0---0-0-|-0---0-0-|

Pre-Chorus:

G|---------|---------|---------|---------|
D|---------|---------|---------|---------|
A|---------|---------|-2---2-2-|---------|
E|-0---0-0-|-0---0-0-|---------|-2---2-2-|

G|---------|---------|---------|---------|
D|---------|---------|---------|---------|
A|---------|---------|-2---2-2-|---------|
E|-0---0-0-|-0---0-0-|---------|-2---2-2-|

G|---------|---------|---------|---------|
D|---------|---------|---------|---------|
A|---------|---------|-2---2-2-|---------|
E|-0---0-0-|-0---0-0-|---------|-2---2-2-|

G|---------|---------|---------|---------|
D|---------|---------|---------|---------|
A|---------|---------|-2---2-2-|---------|
E|-0---0-0-|-0---0-0-|---------|-2---2-2-|


Chorus:

G|---------|---------|---------|---------|
D|---------|---------|---------|---------|
A|---------|---------|-2---2-2-|---------|
E|-0---0-0-|-0---0-0-|---------|-2---2-2-|

G|---------|---------|---------|---------|
D|---------|---------|---------|---------|
A|---------|---------|-2---2-2-|-2---2-2-|
E|-0---0-0-|-0---0-0-|---------|---------|


Verse 2:

G|---------|---------|---------|---------|
D|---------|---------|---------|---------|
A|-2---2-2-|-2---2-2-|---------|---------|
E|---------|---------|-0---0-0-|-0---0-0-|

G|---------|---------|---------|---------|
D|---------|---------|---------|---------|
A|---------|---------|---------|---------|
E|-2---2-2-|-4---4-4-|-0---0-0-|-0---0-0-|

G|---------|---------|---------|---------|
D|---------|---------|---------|---------|
A|-2---2-2-|-2---2-2-|---------|---------|
E|---------|---------|-0---0-0-|-0---0-0-|

G|---------|---------|---------|---------|
D|---------|---------|---------|---------|
A|---------|---------|---------|---------|
E|-2---2-2-|-4---4-4-|-0---0-0-|-0---0-0-|



Pre-Chorus:

G|---------|---------|---------|---------|
D|---------|---------|---------|---------|
A|---------|---------|-2---2-2-|---------|
E|-0---0-0-|-0---0-0-|---------|-2---2-2-|

G|---------|---------|---------|---------|
D|---------|---------|---------|---------|
A|---------|---------|-2---2-2-|---------|
E|-0---0-0-|-0---0-0-|---------|-2---2-2-|

G|---------|---------|---------|---------|
D|---------|---------|---------|---------|
A|---------|---------|-2---2-2-|---------|
E|-0---0-0-|-0---0-0-|---------|-2---2-2-|

G|---------|---------|---------|---------|
D|---------|---------|---------|---------|
A|---------|---------|-2---2-2-|---------|
E|-0---0-0-|-0---0-0-|---------|-2---2-2-|


Chorus:

G|---------|---------|---------|---------|
D|---------|---------|---------|---------|
A|---------|---------|-2---2-2-|---------|
E|-0---0-0-|-0---0-0-|---------|-2---2-2-|

G|---------|---------|---------|---------|
D|---------|---------|---------|---------|
A|---------|---------|-2---2-2-|---------|
E|-0---0-0-|-0---0-0-|---------|-2---2-2-|

G|---------|---------|---------|---------|
D|---------|---------|---------|---------|
A|---------|---------|---------|---------|
E|-0-------|---------|---------|---------|

Almost there ...

Sign in to get your own page with links to favourite songs and more. You are just one click away...

Login with Facebook Login with Google