Log in

One click and you are in

Login with Facebook Login with Google

Why sign up and log in

Guitar Tabs Explorer
Ed Sheeran bass tabs for Afire love

Bass tabs

  • Tuning: Standard tuning
  • Difficulty: Novice
This is the song the whole way through.


01:08     Repeat till it stops
G|-7---s---------|-----------|---------------|
D|----7\--7-7--8-|---8-8-7-8-|-8-7-10--10-10-|
A|---------------|-8---------|---------------|
E|---------------|-----------|---------------|


02:36     Repeat till it stops
G|-7---s---------|-----------|---------------|
D|----7\--7-7--8-|---8-8-7-8-|-8-7-10--10-10-|
A|---------------|-8---------|---------------|
E|---------------|-----------|---------------|

Afire Love bass tab

Ed Sheeran bass tabs for Afire love "Afire Love" is a song English singer-songwriter Ed Sheeran recorded for his second studio album, "x". "Afire Love" and the album was released in 2014.

Almost there ...

Sign in to get your own page with links to favourite songs and more. You are just one click away...

Login with Facebook Login with Google