Log in

One click and you are in

Login with Facebook Login with Google

Why sign up and log in

Guitar Tabs Explorer
Shawn James guitar tabs for Through the valley (Ver. 2)

Guitar tabs with lyrics

Intro:

    A chord diagramE minorEm                            A chord diagramA minorAm
e|-0----0----0--|-0----0----0--|-0----0----0--|-0----0----0--|
B|---0----0----0|---0----0----0|---1----1----1|---1----1----1|
G|----0----0----|----0----0----|----2----2----|----1----2----|
D|-----------2--|-----------2--|------2-------|------2-------|
A|------2-------|------2-------|-0---------0--|-0---------0--|
E|-0------------|-0------------|--------------|--------------|

    A chord diagramE minorEm                            A chord diagramB7B7
e|-0----0----0--|-0----0----0--|-0----0----0--|-0----0---0-0-0|
B|---0----0----0|---0----0----0|---0----0----0|---0----0-0-0-0|
G|----0----0----|----0----0----|----2----2-2--|----2-----2-2-2|
D|-----------2--|-----------2--|------1-------|------1-----1-1|
A|------2-------|------2-------|-2------------|-2----------2-2|
E|-0------------|-0------------|--------------|---------------|

    A chord diagramE minorEm                            A chord diagramA minorAm
e|-0----0----0--|-0----0----0--|-0----0----0--|-0----0----0--|
B|---0----0----0|---0----0----0|---1----1----1|---1----1----1|
G|----0----0----|----0----0----|----2----2----|----1----2----|
D|-----------2--|-----------2--|------2-------|------2-------|
A|------2-------|------2-------|-0---------0--|-0---------0--|
E|-0------------|-0------------|--------------|--------------|

    A chord diagramE minorEm               A chord diagramB7B7                         A chord diagramE minorEm                         I
e|-0----0----0--|----0-----0----0--0---0------|-0----0----0--|-0----0----0--|
B|---0----0----0|----0-----0----0--0---0------|---0----0----0|---0----0----0|
G|----0----0----|----2-PM--2-------2---2------|----0----0----|----0----0----|
D|-----------2--|----1-----1-------1---1------|-----------2--|-----------2--|
A|------2-------|-2--2-----2-------2---2------|------2-------|------2-------|
E|-0------------|-----------------------------|-0------------|-0------------|

Verse 1:

    A chord diagramE minorEm                            A chord diagramA minorAm
   walk,  ....   valley ....       shadow....death
e|-0----0----0--|-0----0----0--|-0----0----0--|-0----0----0--|
B|---0----0----0|---0----0----0|---1----1----1|---1----1----1|
G|----0----0----|----0----0----|----2----2----|----1----2----|
D|-----------2--|-----------2--|------2-------|------2-------|
A|------2-------|------2-------|-0---------0--|-0---------0--|
E|-0------------|-0------------|--------------|--------------|

    A chord diagramE minorEm                            A chord diagramB7B7
   I fear  no  evil....          blind....   all...       in my
e|-0----0----0--|-0----0----0--|-0----0----0--|-0----0----0--|
B|---0----0----0|---0----0----0|---0----0----0|---0----0----0|
G|----0----0----|----0----0----|----2----2-2--|----2----2-2--|
D|-----------2--|-----------2--|------1-------|------1-------|
A|------2-------|------2-------|-2------------|-2------------|
E|-0------------|-0------------|--------------|--------------|

    A chord diagramE minorEm                            A chord diagramA minorAm
   mind   ....   gun ....        me                 because I
e|-0----0----0--|-0----0----0--|-0----0----0--|-0----0----0--|
B|---0----0----0|---0----0----0|---1----1----1|---1----1----1|
G|----0----0----|----0----0----|----2----2----|----1----2----|
D|-----------2--|-----------2--|------2-------|------2-------|
A|------2-------|------2-------|-0---------0--|-0---------0--|
E|-0------------|-0------------|--------------|--------------|

    A chord diagramE minorEm               A chord diagramB7B7          A chord diagramE minorEm                         I
   know      enemies          come
e|-0----0----0--|-0----0----0--|-0----0----0--|-0----0----0--|
B|---0----0----0|---0----0----0|---0----0----0|---0----0----0|
G|----0----0----|----2----2-2--|----0----0----|----0----0----|
D|-----------2--|------1-------|-----------2--|-----------2--|
A|------2-------|-2------------|------2-------|------2-------|
E|-0------------|--------------|-0------------|-0------------|

Repeat for Verse 2

  A chord diagramE minorEm  A chord diagramE minor 7Em7  A chord diagramA minorAm  A chord diagramG MajorG
e|-0-|-0-|-0-|-3-|-1-|-2-|
B|-0-|-0-|-1-|-0-|-2-|-0-|
G|-0-|-0-|-2-|-0-|-3-|-2-|
D|-2-|-0-|-2-|-0-|-3-|-1-|
A|-2-|-2-|-0-|-2-|-1-|-2-|
E|-0-|-0-|-x-|-3-|-1-|-x-|


Chorus:

       A chord diagramE minorEm          A chord diagramE minor 7Em7                 A chord diagramA minorAm
Well I came upon a man at the top of a hill,
A chord diagramE minorEm               A chord diagramG MajorG             Bm/F#  A chord diagramB7B7
call himself the savior of the human race.
        A chord diagramE minorEm                 A chord diagramE minor 7Em7           A chord diagramA minorAm
Said he come to save the world from destruction and pain,
           A chord diagramE minorEm *                    A chord diagramB minorBm *
but I said how can you save the world from itself.


Bridge:

A chord diagramE minorEm A chord diagramF# minorF#m A chord diagramG MajorG Bm/F# A chord diagramA minorAm
A chord diagramE minorEm    A chord diagramE minor 7Em7      A chord diagramB7B7
A chord diagramE minorEm             A chord diagramA minorAm
A chord diagramA minorAm             A chord diagramE minorEm


Chorus 2:

         A chord diagramE minorEm           A chord diagramF# minorF#m    A chord diagramG MajorG   Bm/F#  A chord diagramA minorAm
'Cause I walk through the valley of the shadow of death.
       A chord diagramE minorEm     A chord diagramE minor 7Em7             A chord diagramB7B7
and I fear no evil 'cause I'm blind.
   A chord diagramE minorEm             A chord diagramE minor 7Em7                    A chord diagramA minorAm
I walk beside the still waters and they restore my soul,
      A chord diagramE minorEm          A chord diagramB7B7               A chord diagramE minorEm
but I know when I die my soul is damned.


************************************

| *   Strum Once
| PM  Palm mute

Other versions of Through The Valley

Through the valleyChords
Through the valley (Ver. 2)Chords
Through the valley acousticChords
Through the valleyTabs
Through the valley (Ver. 3) - introTabs

↓ Add and view comments below ↓

What do you think about this song and these tabs?

Add your comments, questions, rant or a thumbs up below.

Almost there ...

Sign in to get your own page with links to favourite songs and more. You are just one click away...

Login with Facebook Login with Google