Log in

One click and you are in

Login with Facebook Login with Google

Why sign up and log in

Guitar Tabs Explorer
Shawn James guitar tabs for The guardian ellies song

Guitar tabs with lyrics

Tuning: Standard (E A D G B E)

Let the notes ring out (typically until next bar or chord change).

You're gonna see a lot of the same shapes, they're just arranged differently depending on the part of the song

Intro:

e|----------------------|---------------------|---------------------|--------------------|
B|----------------------|--------1------------|--------0------------|--------0-----------|
G|---------0------------|----2---------2---2--|----2---------2---0--|--------0--------0--|
D|----2----------2---2--|----------------2----|----------------1----|--------------------|
A|-----------------2----|--0---0--------------|--2---2--------------|----2--------2------|
E|--0---0---------------|---------------------|---------------------|--3---3----2---2----|

e|----------------------|---------------------|---------------------|--------------------|
B|----------------------|--------1------------|--------0---------0--|--------------------|
G|---------0------------|----2---------2---2--|----2---------2------|--------------------|
D|----2----------2---2--|----------------2----|----------------1----|--------------------|
A|-----------------2----|--0---0--------------|--2---2--------------|--------------------|
E|--0---0---------------|---------------------|---------------------|--------------------|


Verse:

e|----------------------|---------------------|---------------------|-------------------|
B|----------------------|--------1------------|--------0------------|-------------------|
G|---------0------------|----2---------2---2--|----2---------2---0--|--------0-------0--|
D|----2----------2---2--|----------------2----|----------------1----|-------------------|
A|-----------------2----|--0---0--------------|--2---2--------------|----2-------2------|
E|--0---0---------------|---------------------|---------------------|--3---3---2---2----|

e|----------------------|---------------------|---------------------|----------------|
B|----------------------|--------1------------|--------0---------0--|------0---------|
G|---------0------------|----2---------2---2--|----2---------2------|--2------2---0--|
D|----2----------2---2--|----------------2----|----------------1----|----1------1----|
A|-----------------2----|--0---0--------------|--2---2--------------|----------------|
E|--0---0---------------|---------------------|---------------------|----------------| x2 (all 8 bars)


Pre-Chorus:

after the line "one step forward, two steps back" (end of verse), repeat the A chord diagramA minorAm shape and then keep the
same cycle up until the end of the chorus

e|---------------------|---------------------|--------------------|----------------------|
B|--------1------------|--------0------------|--------------------|----------------------|
G|----2---------2---2--|----2---------2---0--|--------0--------0--|---------0------------|
D|----------------2----|----------------1----|--------------------|----2----------2---2--|
A|--0---0--------------|--2---2--------------|----2--------2------|-----------------2----|
E|---------------------|---------------------|--3---3----2---2----|--0---0---------------|  x2


Chrous:

e|---------------------|---------------------|--------------------|----------------------|
B|--------1------------|--------0------------|--------------------|----------------------|
G|----2---------2---2--|----2---------2---0--|--------0--------0--|---------0------------|
D|----------------2----|----------------1----|--------------------|----2----------2---2--|
A|--0---0--------------|--2---2--------------|----2--------2------|-----------------2----|
E|---------------------|---------------------|--3---3----2---2----|--0---0---------------|  x2


Verse:

Right after the chorus, for the whistling part go back to the cycle starting from Em.

e|----------------------|---------------------|---------------------|-------------------|
B|----------------------|--------1------------|--------0------------|-------------------|
G|---------0------------|----2---------2---2--|----2---------2---0--|--------0-------0--|
D|----2----------2---2--|----------------2----|----------------1----|-------------------|
A|-----------------2----|--0---0--------------|--2---2--------------|----2-------2------|
E|--0---0---------------|---------------------|---------------------|--3---3---2---2----|


e|----------------------|---------------------|---------------------|----------------|
B|----------------------|--------1------------|--------0---------0--|----------------|
G|---------0------------|----2---------2---2--|----2---------2------|----------------|
D|----2----------2---2--|----------------2----|----------------1----|----------------|
A|-----------------2----|--0---0--------------|--2---2--------------|----------------|
E|--0---0---------------|---------------------|---------------------|----------------|

After the whistling part:
                                              ("skipping" one bar here)
e|----------------------|---------------------|-------------------|----------------------|
B|----------------------|--------1------------|-------------------|----------------------|
G|---------0------------|----2---------2---2--|--------0-------0--|---------0------------|
D|----2----------2---2--|----------------2----|-------------------|----2----------2---2--|
A|-----------------2----|--0---0--------------|----2-------2------|-----------------2----|
E|--0---0---------------|---------------------|--3---3---2---2----|--0---0---------------|

e|----------------------|---------------------|---------------------|----------------|
B|----------------------|--------1------------|--------0---------0--|------0---------|
G|---------0------------|----2---------2---2--|----2---------2------|--2------2---0--|
D|----2----------2---2--|----------------2----|----------------1----|----1------1----|
A|-----------------2----|--0---0--------------|--2---2--------------|----------------|
E|--0---0---------------|---------------------|---------------------|----------------|

(and back to normal)

e|----------------------|---------------------|---------------------|-------------------|
B|----------------------|--------1------------|--------0------------|-------------------|
G|---------0------------|----2---------2---2--|----2---------2---0--|--------0-------0--|
D|----2----------2---2--|----------------2----|----------------1----|-------------------|
A|-----------------2----|--0---0--------------|--2---2--------------|----2-------2------|
E|--0---0---------------|---------------------|---------------------|--3---3---2---2----|


e|----------------------|---------------------|---------------------|----------------|
B|----------------------|--------1------------|--------0---------0--|------0---------|
G|---------0------------|----2---------2---2--|----2---------2------|--2------2---0--|
D|----2----------2---2--|----------------2----|----------------1----|----1------1----|
A|-----------------2----|--0---0--------------|--2---2--------------|----------------|
E|--0---0---------------|---------------------|---------------------|----------------|

"... survival of the fittest of sorts"

e|---------------------|---------------------|--------------------|----------------------|
B|--------1------------|--------0------------|--------------------|----------------------|
G|----2---------2---2--|----2---------2---0--|--------0--------0--|---------0------------|
D|----------------2----|----------------1----|--------------------|----2----------2---2--|
A|--0---0--------------|--2---2--------------|----2--------2------|-----------------2----|
E|---------------------|---------------------|--3---3----2---2----|--0---0---------------|  x4 (last 4 bars)


Bridge:

e|----------------------|---------------------|---------------------|-------------------|
B|----------------------|--------1------------|--------0------------|-------------------|
G|---------0------------|----2---------2---2--|----2---------2---0--|--------0-------0--|
D|----2----------2---2--|----------------2----|----------------1----|-------------------|
A|-----------------2----|--0---0--------------|--2---2--------------|----2-------2------|
E|--0---0---------------|---------------------|---------------------|--3---3---2---2----|


e|----------------------|---------------------|---------------------|----------------|
B|----------------------|--------1------------|--------0---------0--|----------------|
G|---------0------------|----2---------2---2--|----2---------2------|----------------|
D|----2----------2---2--|----------------2----|----------------1----|----------------|
A|-----------------2----|--0---0--------------|--2---2--------------|----------------|
E|--0---0---------------|---------------------|---------------------|----------------|

"Kill or be killed..."

e|----------------------|---------------------|---------------------|-------------------|
B|----------------------|--------1------------|--------0------------|-------------------|
G|---------0------------|----2---------2---2--|----2---------2---0--|--------0-------0--|
D|----2----------2---2--|----------------2----|----------------1----|-------------------|
A|-----------------2----|--0---0--------------|--2---2--------------|----2-------2------|
E|--0---0---------------|---------------------|---------------------|--3---3---2---2----|


e|----------------------|---------------------|---------------------|----------------|
B|----------------------|--------1------------|--------0---------0--|------0---------|
G|---------0------------|----2---------2---2--|----2---------2------|--2------2---0--|
D|----2----------2---2--|----------------2----|----------------1----|----1------1----|
A|-----------------2----|--0---0--------------|--2---2--------------|----------------|
E|--0---0---------------|---------------------|---------------------|----------------| x2 (last 8 bars)


Pre-Chorus:

e|---------------------|---------------------|--------------------|----------------------|
B|--------1------------|--------0------------|--------------------|----------------------|
G|----2---------2---2--|----2---------2---0--|--------0--------0--|---------0------------|
D|----------------2----|----------------1----|--------------------|----2----------2---2--|
A|--0---0--------------|--2---2--------------|----2--------2------|-----------------2----|
E|---------------------|---------------------|--3---3----2---2----|--0---0---------------|  x2


Chrous:

e|---------------------|---------------------|--------------------|----------------------|
B|--------1------------|--------0------------|--------------------|----------------------|
G|----2---------2---2--|----2---------2---0--|--------0--------0--|---------0------------|
D|----------------2----|----------------1----|--------------------|----2----------2---2--|
A|--0---0--------------|--2---2--------------|----2--------2------|-----------------2----|
E|---------------------|---------------------|--3---3----2---2----|--0---0---------------|


e|---------------------|---------------------|--------------------|------------0----|
B|--------1------------|--------0------------|--------------------|----------0------|
G|----2---------2---2--|----2---------2---0--|--------0--------0--|--------0--------|
D|----------------2----|----------------1----|--------------------|------2----------|
A|--0---0--------------|--2---2--------------|----2--------2------|----2------------|
E|---------------------|---------------------|--3---3----2---2----|--0--------------|

Other versions of The Guardian Ellies Song

The guardian ellies songChords

↓ Add and view comments below ↓

What do you think about this song and these tabs?

Add your comments, questions, rant or a thumbs up below.

Almost there ...

Sign in to get your own page with links to favourite songs and more. You are just one click away...

Login with Facebook Login with Google