Log in

One click and you are in

Login with Facebook Login with Google

Why sign up and log in

Guitar Tabs Explorer
Shamrock chords for Alipin

Guitar chords

Title: ALIPIN


Intro:

    A chord diagramG9G9            A chord diagramC7C7         A chord diagramC9C9         A chord diagramDsusDsus
e.---2------------2--------2----------------3------------
A.----2-----------2---------2------------------2---------
D.--------------------------------------4----------------  ( 2x )
G.------------------------------------------------------
B.------------------2--------3--------------------------
E.-----3------------------------------------------------
Verse 1:
e.---2-----------2------------2---------------3-----------
A.----2-----------2-----------2------------------2--------
D.----------------------------------------4---------------  ( 2x )
G.--------------------------------------------------------
B.------------------2---------3---------------------------
E.-----3--------------------------------------------------


Refrain:
        A chord diagramA7A7      A chord diagramG9G9          A chord diagramA7A7         A chord diagramG+G
e.---------------3---------------------3--------------------
A.----------------3---------------------3-------------------
D.-----------------------------------------------------------
G.-----2----------------------2------------------------------
B.--1----------------------1---------------------------------
E.-----------------3---------------------3-------------------

Kasama 2 sa refrain huh.. ....
       A chord diagramE minorEm         A chord diagramA7A7       A chord diagramG7G7             Dsus.
e.--------------------------3---------------3-------------
A.-------2-------------------3-----------------2----------
D.--------2------------------------------4----------------
G.------------------2-------------------------------------
B.---------------1----------------------------------------
E.-------------------------------3------------------------

Chorus:
    A chord diagramG9G9            A chord diagramC7C7         A chord diagramC9C9         A chord diagramDsusDsus
e.---2------------2--------2----------------3------------
A.----2-----------2---------2------------------2---------
D.--------------------------------------4----------------
G.------------------------------------------------------
B.------------------2--------3--------------------------
E.-----3------------------------------------------------


   A chord diagramG9G9            A chord diagramC7C7         A chord diagramC9C9         A chord diagramDsusDsus
e.---2------------2--------2----------------3-----------------12----------
A.---2-----------2---------2------------------2---------------12-Harmonics-
D.--------------------------------------4---------------------12----------
G.------------------------------------------------------------------------
B.------------------2--------3--------------------------------------------
E.-----3------------------------------------------------------------------


Verse 2:



Verse 1:
e.---2-----------2------------2---------------3-----------
A.----2-----------2-----------2------------------2--------
D.----------------------------------------4---------------  ( 2x )
G.--------------------------------------------------------
B.------------------2---------3---------------------------
E.-----3--------------------------------------------------


2nd Refrain nmn pow 2. .

       A chord diagramA7A7      A chord diagramG9G9          A chord diagramA7A7         A chord diagramG+G
e.---------------3---------------------3--------------------
A.----------------3---------------------3-------------------
D.-----------------------------------------------------------
G.-----2----------------------2------------------------------
B.--1----------------------1---------------------------------
E.-----------------3---------------------3-------------------

Kasama po ult 2 huh.. ....hehehe...
       A chord diagramE minorEm         A chord diagramA7A7       A chord diagramG7G7             Dsus.
e.--------------------------3---------------3-------------
A.-------2-------------------3-----------------2----------
D.--------2------------------------------4----------------
G.------------------2-------------------------------------
B.---------------1----------------------------------------
E.-------------------------------3------------------------


Chorus:

    A chord diagramG9G9            A chord diagramC7C7         A chord diagramC9C9         A chord diagramDsusDsus
e.---2------------2--------2----------------3------------
A.----2-----------2---------2------------------2---------
D.--------------------------------------4----------------
G.------------------------------------------------------
B.------------------2--------3--------------------------
E.-----3------------------------------------------------

   A chord diagramG9G9            A chord diagramC7C7         A chord diagramC9C9         A chord diagramDsusDsus
e.---2------------2--------2----------------3-----------------12----------
A.---2-----------2---------2------------------2---------------12-Harmonics-
D.--------------------------------------4---------------------12----------
G.------------------------------------------------------------------------
B.------------------2--------3--------------------------------------------
E.-----3------------------------------------------------------------------


SOLO:

A chord diagramE MajorE|-----------|------------------------------|
A chord diagramBB|-----------|------------------------------|
A chord diagramG+G|-----------|------------------------------|
A chord diagramD MajorD|-5-----7-7-|---5-7-7/9-10-9-7-7--5-5--7-7-|
A chord diagramA augmentedA|---5-5-----|-7----------------------------|
A chord diagramE MajorE|-----------|------------------------------|  Taymingan nyo nlng pow ah..

e|-----------------|-----------------|----------------------|
A chord diagramBB|-----------------|-----------------|----------------------|
A chord diagramG+G|-----------------|-----------------|----------------------|
A chord diagramD MajorD|-----10-9-7-9----|-----10-9-5/7-5--|-7-5-4-5-5/10-9-7-5---|
A chord diagramA augmentedA|-5h7----------10-|-5h7-------------|--------------------5-|
A chord diagramE MajorE|-----------------|-----------------|----------------------|


Bridge:

gNn!! prin chords ng Refrain.. heheh. .

       A chord diagramA7A7      A chord diagramG9G9          A chord diagramA7A7         A chord diagramG+G
e.---------------3---------------------3--------------------
A.----------------3---------------------3-------------------
D.-----------------------------------------------------------
G.-----2----------------------2------------------------------
B.--1----------------------1---------------------------------
E.-----------------3---------------------3-------------------


       A chord diagramE minorEm         A chord diagramA7A7       A chord diagramG7G7             A chord diagramDsus2Dsus2
-------------------------3-------------------3-----------
A.-------2-------------------3--------------------2------
D.--------2------------------------------4----------------
G.------------------2-------------------------------------
B.---------------1----------------------------------------
E.-------------------------------3------------------------


Repeat Chorus:

    A chord diagramG9G9            A chord diagramC7C7         A chord diagramC9C9         A chord diagramDsusDsus
e.---2------------2--------2----------------3------------
A.----2-----------2---------2------------------2---------
D.--------------------------------------4----------------
G.------------------------------------------------------
B.------------------2--------3--------------------------
E.-----3------------------------------------------------
                                                                (4x)
   A chord diagramG9G9            A chord diagramC7C7         A chord diagramC9C9         A chord diagramDsusDsus
e.---2------------2--------2----------------3-----------------12----------
A.---2-----------2---------2------------------2---------------12-Harmonics-
D.--------------------------------------4---------------------12----------
G.------------------------------------------------------------------------
B.------------------2--------3--------------------------------------------
E.-----3------------------------------------------------------------------


ok pagtyagaan! nyo no pow 2ng tab!! n ginawa ko!!
kyo na pow bahala!. . basta laruin  ung pag pluking & samahan nyo nrin,
ng pag ta-tap!! alam mo un!!..... heheheheh.. .qng my friendster ka!! plA!!
add m nmn aq!!heheheh christian_010@company.com . .. . pow
hehehehehehe. . .bait k nmn db. . . . ..

Other versions of Alipin

AlipinTabs

Almost there ...

Sign in to get your own page with links to favourite songs and more. You are just one click away...

Login with Facebook Login with Google