Log in

One click and you are in

Login with Facebook Login with Google

Why sign up and log in

Guitar Tabs Explorer
Shamrain tabs for Shallow delusion

Guitar tabs

Tuning: Standard


Intro chords (acoustic):
A chord diagramA minorAm A chord diagramE minorEm

Intro:
E-----5-3-0--|
B---5--------|
G------------|
D------------|
A------------|
E------------|


Verse (clean background):
E------------------------0----|
B---------1------------1------|
G-------2------------2--------|
D-----2------------2----------|
A---0-------------------------|
E-----------------------------|
            (A chord diagramA minorAm)


Verse (distorted background):
E-------------------------------------------------|
B---/6-6-6---5-5-5-5-5-5-5-5/3-3-3-3-3-3-1-1-1----|
G-------------------------------------------------|
D-------------------------------------------------|
A-------------------------------------------------|
E-------------------------------------------------|


Chorus:
A chord diagramA minorAm A chord diagramE minorEm


Solo (distorted and tremolo picking every note):
E----------------------------------|
B----------------------------------|
G---5-7-4-2-7-9-5-7-9-10-9-10-12---|
D----------------------------------|
A----------------------------------|
E----------------------------------|

E-----------------------------|
B-----------------------------|
G---14/4/14/4/14/4/14/16-17---|
D-----------------------------|
A-----------------------------|
E-----------------------------|

E---------------------------------|
B---------------------------------|
G---14/4/14/4/14/4/14-10-12-14/---|
D---------------------------------|
A---------------------------------|
E---------------------------------|


Bridge:
E---5-7/5-3/---3/5/---3/---5-7-8/5/---8-8-7-5/---|
B------------------------------------------------|
G------------------------------------------------|
D------------------------------------------------|
A------------------------------------------------|

Almost there ...

Sign in to get your own page with links to favourite songs and more. You are just one click away...

Login with Facebook Login with Google