Log in

One click and you are in

Login with Facebook Login with Google

Why sign up and log in

Guitar Tabs Explorer
Shamrain tabs for Funeral

Guitar tabs

Tuning: Standard


Main riff:
E---/8---7-5---5-7-8-10-7-5-----8-7---------------------------|
B-----------------------------------5-3---3-5-6-8-8---8/6/8---|
G-------------------------------------------------------------|
D-------------------------------------------------------------|
A-------------------------------------------------------------|
E-------------------------------------------------------------|

Bridge (probably not played with a guitar, but anyways...):
E-----------------------------0---0-1-1---0---0---|
B---1-0-------------------------------------3-----|
G-------0-2---2-4-5-2---2-4-5---------------------|
D-------------------------------------------------|
A-------------------------------------------------|
E-------------------------------------------------|


Outro:
E---------------------------------------------------------------|
B---8---6-6-5---5---8-6-6-5-5-----8---6-6-5---5-----------------|
G-------------7-----------------------------7-----7---5-5-7-7---|
D---------------------------------------------------------------|
A---------------------------------------------------------------|
E---------------------------------------------------------------|

E---8---7-7-5-----5---8---7-7-5---------8---7-7-5-----5----------------------|
B-------------8-8---------------8-8---------------8-8---8---6---6-8-8---10---|
G----------------------------------------------------------------------------|
D----------------------------------------------------------------------------|
A----------------------------------------------------------------------------|

Almost there ...

Sign in to get your own page with links to favourite songs and more. You are just one click away...

Login with Facebook Login with Google