Log in

One click and you are in

Login with Facebook Login with Google

Why sign up and log in

Guitar Tabs Explorer
Sham 69 bass tabs for Ulster

Bass tabs

Time:19.53

Now for some sham 69. Theres not many tabs so im here to compensate.


Intro/Verse
G------------------------------------------------------------------|
D------------------------------------------------------------------|
A------------------------------------5---5---5---5---7---7---7---7-|
E---5---5---5---5----8---8---8---8---------------------------------|

G------------------------------------------------------------------|
D------------------------------------------------------------------|
A------------------------------------5---5---5---5-----------------|
E---5---5---5---5---8---8---8---8--------------------5---5---5---5-|
Chorus
G------------------------|
D------------------------|
A------------------------|
E--3---3---3---3---1---2-|

For the guitar solo just play the intro/verse part

Progression


Intro x4

Verse x8

Chorus x7

Verse x4

Chorus x7

Verse x8

Chorus x18
Fade.....

Almost there ...

Sign in to get your own page with links to favourite songs and more. You are just one click away...

Login with Facebook Login with Google