Log in

One click and you are in

Login with Facebook Login with Google

Why sign up and log in

Guitar Tabs Explorer
Sham 69 tabs for If the kids are united

Guitar tabs

#

                                Sham 69
                         If The Kids Are United
                                                   Tabbed By Eric Hacker
If you find any mistakes or you have an good Oi tab Email me at Kc Punx@aol.com

    intro:
E------------------------------------|----------------------------------|
B------------------------------------|----------------------------------|
G------------------------------------|----------------------------------|
D---8-----8-----8-----8-----8-----8--|--8--8--8--8--8--8--8--8--8--8----|
A---8-----8-----8-----8-----8-----8--|--8--8--8--8--8--8--8--8--8--8----|
E---6-----6-----6-----6-----6-----6--|--6--0--6--6--6--6--0--6--6--6----|
              verse:
E---------||--------------------------|--------------------------|------|
B---------||--------------------------|--------------------------|------|
G---------||--------------------------|--8--8--8--8--8--8--8--8--|------|
D---8--8--||--8--8--8--8--8--8--8--8--|--8--8--8--8--8--8--8--8--|------|
A---8--8--||--8--8--8--8--8--8--8--8--|--6--6--6--6--6--6--6--6--|------|
E---6--0--||--6--6--6--6--6--6--6--6--|--------------------------|------|

E-----------------------------------|--------------------------|--------|
B-----------------------------------|--------------------------|--------|
G---10--10--10--10--10--10--10--10--|--------------------------|--------|
D---10--10--10--10--10--10--10--10--|--8--8--8--8--8--8--8--8--|--8-----|
A---8---8---8---8---8---8---8---8---|--8--8--8--8--8--8--8--8--|--8-----|
E-----------------------------------|--6--6--6--6--6--6--6--6--|--6-----|


                             interlude:
E------------------------||------------------------------||-------------|
B------------------------||------------------------------||-------------|
G------------------------||--10--10----------8--8--------||-------------|
D---8--8--8--8--8--8--8--||--10--10--10--10--8--8--8--8--||-------------|
A---8--8--8--8--8--8--8--||--8---8---10--10--6--6--8--8--||-------------|
E---6--6--6--6--6--6--6--||----------8---8---------6--6--||-------------|


==      Created with TABESTRY Tab Creation Software for Windows       ==
==               For more info email gse@ocsystems.com                ==

Almost there ...

Sign in to get your own page with links to favourite songs and more. You are just one click away...

Login with Facebook Login with Google