Log in

One click and you are in

Login with Facebook Login with Google

Why sign up and log in

Guitar Tabs Explorer
Shakira bass tabs for Mi verdad

Bass tabs with lyrics

  • Capo on 2nd
Mi Verdad
Shakira y Maná
Album: Cama incendiada (Maná)


 Intro - intrumental: G G/A G/B Cadd9 D/F#
G|---------------------------------------------------|-
D|---------------------------------------------------|-
A|----------------------------5----------------------|-
E|-4-/5-5---5/7-7---7/9-9---9----5-4---4-4--4-4--4-4-|-

Verse 1: 00:11
G|---------------------------------------------------|-
D|---------------------------------------------------|-
A|----------------------------5----------------------|-
E|-4-/5-5---5/7-7---7/9-9---9----5-4---4-4--4-4--4-4-|-
G G/A       G/B
Hay mentiras en los labios
Cadd9       D/F#
Hay mentiras en la piel, que dolor

G|---------------------------------------------------|-
D|---------------------------------------------------|-
A|----------------------------5----------------------|-
E|-4-/5-5---5/7-7---7/9-9---9----5-4---4-4--4-4--4/9-|-
G  G/A      G/B
Hay mentiras, hay amantes
Cadd9        D/F#
Que por instantes de placer
B7
Ponen su vida a temblar

00:30
G|---------------------------------------------------|-
D|-------------------------------7-------------4-----|-
A|---9-9---9/5-5---5/7-7---7--5--------------4---4---|-
E|-9--------------------------------5--5-5--5------2-|-
Em   C    D
Hay mentiras compasivas
C        G
Hay mentiras por piedad
D       B7
Que no quieren lastimar

G|---------------------------------|-
D|------------7--------------------|-
A|------5--5-----7r--7-7--7-7--7-7-|-
E|-2-2-----------------------------|-
Em          C      D
Hay mentiras que nos hieren de verdad

Ay, ay, ay


Bridge: 00:49
G|-----------|-----------|-----------|-----------|-
D|----4--7---|----6--9---|-----------|-----------|-
A|\5r------5-|-7r------7-|----4--7-7-|---7--4----|-
E|-----------|-----------|-5r--------|-5-------5-|-
C          D
Hay engaños que por años
G
Ocultaron la verdad
G7
Haciendo mucho daño

G|-----------|-----------|-----------|-----------|-
D|----4--7---|----6--9---|----7-11---|---11--7---|-
A|-5r------5-|-7r------7-|-9~------9-|-9-------9-|-
E|-----------|-----------|-----------|-----------|-
C          D
Ay, yo me voy a refugiar
Em
A la tierra de tu amor (mi verdad)


Chorus: 01:08
G|----------|----------|------9---|------6---|-
D|----------|------9---|-7--7---7-|-4--4---4-|-
A|------9---|-7--7---7-|----------|----------|- x2
E|-7--7---7-|----------|----------|----------|-
Am7         D
Tú eres mi amor, mi alegría
        G
La verdad de mi vida
G       Em          Am7
Mi bebe que me salta a los brazos de prisa
       D    G      Em
Tú eres mi refugio y mi verdad... Oye.


Sharira y Maná: 01:28
G|----------|----------|------9---|------6---|-
D|----------|------9---|-7--7---7-|-4--4---4-|-
A|------9---|-7--7---7-|----------|----------|-
E|-7--7---7-|----------|----------|----------|-
Am7         D
tú eres mi amor, mi alegría
        G
La verdad de mi vida
G|----------|----------|----------|-
D|----------|----------|----------|-
A|------9---|-7~-------|----------|-
E|-7--7---7-|----------|-5r-------|-
G       Em        Am7
Mi bebe que me calma el alma con risas
        Cm
Tú eres mi refugio y mi verdad


Verse 01:43 Shakira
G|---------------------------------------------------|-
D|---------------------------------------------------|-
A|----------------------------5----------------------|-
E|-4-/5-5---5/7-7---7/9-9---9----5-4---4-4--4-4--4-4-|-
G  G/A      G/B
Hay mentira en la mirada
Cadd9       D/F#
Hay mentiras en la piel, dibujadas

G|--------------------------------------------------------|-
D|--------------------------------------------------------|-
A|----------------------------5---------------------6-3---|-
E|-4-/5-5---5/7-7---7/9-9---9----5-4---4-4---4-4--4-----4/|-
G  G/A      G/B
Hay mentiras, hay amantes
Cadd9       D/F#
Que por instantes de placer
B7
Ponen su vida a temblar

02:02 Maná
G|---------------------------------------------------|-
D|-------------------------------7-------------4-----|-
A|---9-9---9/5-5---5/7-7---7--5--------------4---4---|-
E|-9--------------------------------5--5-5--5------2-|-
Em   C      D
Hay doctrinas y oradores
C       G
Dictadores sin piedad
D        B7
Que gobiernan sin verdad

G|---------------------------------|-
D|------------7--------------------|-
A|------5--5-----7r--7-7--7-7--7-7-|-
E|-2-2-----------------------------|-
Em          C
Y hay mentiras en los diarios, en las redes
    D
Y en el bar, ay ay ay


Bridge: 02:21 Maná
G|-----------|-----------|-----------|-----------|-
D|----4--7---|----6--9---|-----------|-----------|-
A|\5r------5-|-7r------7-|----4--7-7-|---7--4----|-
E|-----------|-----------|-5r--------|-5-------5-|-
C          D
Hay engaños que por años
G
Ocultaron la verdad
G7
Hiriendo de dolor

G|-----------|-----------|-----------|-----------|-
D|----4--7---|----6--9---|----7-11---|---11--7---|-
A|-5r------5-|-7r------7-|-9~------9-|-9-------9-|-
E|-----------|-----------|-----------|-----------|-
C          D
Ay, yo me voy a refugiar
Em
Al oasis de tu amor


Chorus: 02:39 Sharira y Maná:
G|----------|----------|------9---|------6---|-
D|----------|------9---|-7--7---7-|-4--4---4-|-
A|------9---|-7--7---7-|----------|----------|- x2
E|-7--7---7-|----------|----------|----------|-
Am7          D
Tú eres mi amor, mi alegría
        G
La verdad de mi vida
G       Em          Am7
Mi bebe que me salta a los brazos de prisa
       D     G     Em
Tú eres mi refugio y mi verdad... Oye


Sharira y Maná: 01:28
G|----------|----------|------9---|------6---|-
D|----------|------9---|-7--7---7-|-4--4---4-|-
A|------9---|-7--7---7-|----------|----------|-
E|-7--7---7-|----------|----------|----------|-
Am7          D
Tú eres mi amor, mi alegría
        G
La verdad de mi vida

G|----------|----------|----------|-
D|----------|----------|----------|-
A|------9---|-7~-------|----------|-
E|-7--7---7-|----------|-5r-------|-
G       Em        Am7
Mi bebe que me calma el alma con risas
        Cm
Tú eres mi refugio y mi verdad.


Solo: 03:19

G# A#m Cm C# D#
G|----------------------------8--12--------------------|-
D|-7/8-8---8/10-10--10/12-12---------7--7-7--7-7--7----|-
A|-----------------------------------------------------|-
E|--------------------------------------------------10-|-


Bridge: 03:29
G|-------------------------------------|-
D|-----------------------8-------------|-
A|-10~-10\6--8--8-8---6----------------|-
E|-------------------------6--6-6--6-6-|-
C#         D#
En un mundo tan irreal
  G#
No sé qué creer

G|------------------------------------------------------|-
D|------------------------10----------------------12----|-
A|-6\10~-10-10--6-8--8-8-----10--10-10--10-10--10----10-|-
E|------------------------------------------------------|-
C#              D#      Fm
Y amor sé que tú eres mi verdad, eres mi verdad


Chorus: 03:45
G|-----------|-----------|------10---|-------7---|-
D|-----------|------10---|-8--8----8-|-5--5----5-|-
A|------10---|-8--8----8-|-----------|-----------|-
E|-8--8----8-|-----------|-----------|-----------|-
      A#m      D#
Tú eres la luz que me guía
      G#     Fm
Tú eres la voz que me calma.

G|--------------|-----------|------10---|------10---|-
D|--------------|------10---|-8--8----8-|-8--8----8-|-
A|--------12----|-8--8----8-|-----------|-----------|-
E|-10--10----10-|-----------|-----------|-----------|-
      A#m      D#
Tú eres la lluvia de mi alma
         G#
Y eres toda mi verdad


Outro: 03:45
G|-----------|-----------|------10---|-------7---|-
D|-----------|------10---|-8--8----8-|-5--5----5-|-
A|------10---|-8--8----8-|-----------|-----------|-
E|-8--8----8-|-----------|-----------|-----------|-
      A#m      D#
Tú eres la luz de mi vida
      A#m      Fm
Tú eres la voz que me calma.

G|--------------||-----------|-----------|-----------|-----------||
D|--------------||-----------|-----------|-----------|-----------||
A|--------12----||-8~~~------|-----------|-8~~-------|-----------||
E|-10--10----10-||-----------|-6~~-------|-----------|-6~~-------||
      A#m      C#m
Tú eres la lluvia de mi alma
          G#  C#m
Y eres toda mi verdad
   D#    G#
Eres toda mi verdad

Almost there ...

Sign in to get your own page with links to favourite songs and more. You are just one click away...

Login with Facebook Login with Google