Log in

One click and you are in

Login with Facebook Login with Google

Why sign up and log in

Guitar Tabs Explorer
Nadine Shah guitar tabs for Dreary town

Guitar tabs

  • Capo on 1st
Tuning: Standard (E A D G B E)

There Are Only Two Chords To The Song
You can either play A chord diagramC#C# and A chord diagramF minorFm Without Capo
Or A chord diagramC majorC And A chord diagramE minorEm Capo 1


Chorus:

e|--9-----9-----9------9---9--------|
B|----6-----6-----6------6----------|
G|------6-----6-----6---------------|
D|----------------------------------|
A|----------------------------------|
E|----------------------------------|

e|--8-----8-----8-------------------|
B|----6-----6-----6-----------------|
G|------5-----5-----5--5-5-5-5-5-5--|
D|----------------------------------|
A|----------------------------------|
E|----------------------------------|

↓ Add and view comments below ↓

What do you think about this song and these tabs?

Add your comments, questions, rant or a thumbs up below.

Almost there ...

Sign in to get your own page with links to favourite songs and more. You are just one click away...

Login with Facebook Login with Google