Log in

One click and you are in

Login with Facebook Login with Google

Why sign up and log in

Guitar Tabs Explorer
Shadowy Men On A Shadowy Planet bass tabs for Egypt texas

Egypt Texas bass tab by Shadowy Men On A Shadowy Planet

Shadowy Men On A Shadowy Planet bass tabs for Egypt texas

Bass tabs

Intro:
G|-----------------------------------------------------------------|
D|--------------------------------0--0-3--3-5-7--------------------|
A|--0--0-3--3-5-7-------------------------------------0-2-0---0-2--| x2
E|-----------------0--0-3--3-5-7------------------0-3-------3------|

Verse 1:
G|-----------------------------------------------------------------|
D|--------------------------------0--0-3--3-5-7--------------------|
A|--0--0-3--3-5-7-----------------------------------------2-2------| x2
E|-----------------0--0-3--3-5-7------------------0-0-3-3-----3-3--|



G|---------------------------------------------2-0----------------------|
D|-----------2-0---------------------------3-0-----3--------------------|
A|------3-0------3-------0-2-0---0-2---5-5-----------------0-2-0---0-2--| x2
E|--5-5--------------0-3-------3-----------------------0-3-------3------|


Verse 2:

G|-----------------------------------------------------------------|
D|--------------------------------0--0-3--3-5-7--------------------|
A|--0--0-3--3-5-7-----------------------------------------2-2------| x2
E|-----------------0--0-3--3-5-7------------------0-0-3-3-----3-3--|


G|---------------------------------------------2-0----------------------|
D|-----------2-0---------------------------3-0-----3--------------------|
A|------3-0------3-------0-2-0---0-2---5-5-----------------0-2-0---0-2--| x2
E|--5-5--------------0-3-------3-----------------------0-3-------3------|


bridge:

G|------------------2--------|
D|------2-------0-3----------|
A|--0-3-------2-----------2--| x3
E|--------0-3---------0-3----|

G|------------------2-1----------|
D|------2-------0-3-----2--------|
A|--0-3-------2-----------3--0~--|
E|--------0-3--------------------|


Verse 3:

G|-----------------------------------------------------------------|
D|--------------------------------0--0-3--3-5-7--------------------|
A|--0--0-3--3-5-7-----------------------------------------2-2------| x2
E|-----------------0--0-3--3-5-7------------------0-0-3-3-----3-3--|


G|---------------------------------------------2-0----------------------|
D|-----------2-0---------------------------3-0-----3--------------------|
A|------3-0------3-------0-2-0---0-2---5-5-----------------0-2-0---0-2--| x2
E|--5-5--------------0-3-------3-----------------------0-3-------3------|


Outro:

G|------------------2--------|
D|------2-------0-3----------|
A|--0-3-------2-----------2--| x6
E|--------0-3---------0-3----|

G|---------------------------|
D|------2----------------------------------------------------------|
A|--0-3-------2-5~---5-5-5-5-5-5-5-5-5-----------------------------|
E|--------0-3-----------------------------------5-5-5-5-5-5-5-5-5--|


************************************

| ~  Vibrato

************************************

Almost there ...

Sign in to get your own page with links to favourite songs and more. You are just one click away...

Login with Facebook Login with Google